  0
SECTION
  2
HEADER
  9
$ACADVER
  1
AC1024
  9
$ACADMAINTVER
 70
   155
  9
$DWGCODEPAGE
  3
ANSI_932
  9
$LASTSAVEDBY
  1
iwai
  9
$INSBASE
 10
0.0
 20
0.0
 30
0.0
  9
$EXTMIN
 10
-0.0000000000000568
 20
0.0
 30
0.0
  9
$EXTMAX
 10
209.9999999999999
 20
297.0
 30
0.0
  9
$LIMMIN
 10
0.0
 20
0.0
  9
$LIMMAX
 10
210.0
 20
297.0
  9
$ORTHOMODE
 70
     0
  9
$REGENMODE
 70
     1
  9
$FILLMODE
 70
     1
  9
$QTEXTMODE
 70
     0
  9
$MIRRTEXT
 70
     1
  9
$LTSCALE
 40
1.0
  9
$ATTMODE
 70
     1
  9
$TEXTSIZE
 40
2.5
  9
$TRACEWID
 40
1.0
  9
$TEXTSTYLE
  7
Standard
  9
$CLAYER
  8
実線
  9
$CELTYPE
  6
ByLayer
  9
$CECOLOR
 62
   256
  9
$CELTSCALE
 40
1.0
  9
$DISPSILH
 70
     0
  9
$DIMSCALE
 40
1.0
  9
$DIMASZ
 40
2.5
  9
$DIMEXO
 40
0.625
  9
$DIMDLI
 40
3.75
  9
$DIMRND
 40
0.0
  9
$DIMDLE
 40
0.0
  9
$DIMEXE
 40
1.25
  9
$DIMTP
 40
0.0
  9
$DIMTM
 40
0.0
  9
$DIMTXT
 40
2.5
  9
$DIMCEN
 40
2.5
  9
$DIMTSZ
 40
0.0
  9
$DIMTOL
 70
     0
  9
$DIMLIM
 70
     0
  9
$DIMTIH
 70
     0
  9
$DIMTOH
 70
     0
  9
$DIMSE1
 70
     0
  9
$DIMSE2
 70
     0
  9
$DIMTAD
 70
     1
  9
$DIMZIN
 70
     8
  9
$DIMBLK
  1

  9
$DIMASO
 70
     1
  9
$DIMSHO
 70
     1
  9
$DIMPOST
  1

  9
$DIMAPOST
  1

  9
$DIMALT
 70
     0
  9
$DIMALTD
 70
     3
  9
$DIMALTF
 40
0.03937007874016
  9
$DIMLFAC
 40
1.0
  9
$DIMTOFL
 70
     1
  9
$DIMTVP
 40
0.0
  9
$DIMTIX
 70
     0
  9
$DIMSOXD
 70
     0
  9
$DIMSAH
 70
     0
  9
$DIMBLK1
  1

  9
$DIMBLK2
  1

  9
$DIMSTYLE
  2
ISO-25
  9
$DIMCLRD
 70
     0
  9
$DIMCLRE
 70
     0
  9
$DIMCLRT
 70
     0
  9
$DIMTFAC
 40
1.0
  9
$DIMGAP
 40
1.0
  9
$DIMJUST
 70
     0
  9
$DIMSD1
 70
     0
  9
$DIMSD2
 70
     0
  9
$DIMTOLJ
 70
     0
  9
$DIMTZIN
 70
     8
  9
$DIMALTZ
 70
     0
  9
$DIMALTTZ
 70
     0
  9
$DIMUPT
 70
     0
  9
$DIMDEC
 70
     3
  9
$DIMTDEC
 70
     3
  9
$DIMALTU
 70
     2
  9
$DIMALTTD
 70
     3
  9
$DIMTXSTY
  7
寸法
  9
$DIMAUNIT
 70
     0
  9
$DIMADEC
 70
     0
  9
$DIMALTRND
 40
0.0
  9
$DIMAZIN
 70
     0
  9
$DIMDSEP
 70
    46
  9
$DIMATFIT
 70
     3
  9
$DIMFRAC
 70
     0
  9
$DIMLDRBLK
  1

  9
$DIMLUNIT
 70
     2
  9
$DIMLWD
 70
    -2
  9
$DIMLWE
 70
    -2
  9
$DIMTMOVE
 70
     0
  9
$DIMFXL
 40
1.0
  9
$DIMFXLON
 70
     0
  9
$DIMJOGANG
 40
0.7853981633974483
  9
$DIMTFILL
 70
     0
  9
$DIMTFILLCLR
 70
     0
  9
$DIMARCSYM
 70
     0
  9
$DIMLTYPE
  6

  9
$DIMLTEX1
  6

  9
$DIMLTEX2
  6

  9
$DIMTXTDIRECTION
 70
     0
  9
$LUNITS
 70
     2
  9
$LUPREC
 70
     4
  9
$SKETCHINC
 40
1.0
  9
$FILLETRAD
 40
10.0
  9
$AUNITS
 70
     0
  9
$AUPREC
 70
     0
  9
$MENU
  1
.
  9
$ELEVATION
 40
0.0
  9
$PELEVATION
 40
0.0
  9
$THICKNESS
 40
0.0
  9
$LIMCHECK
 70
     0
  9
$CHAMFERA
 40
10.0
  9
$CHAMFERB
 40
10.0
  9
$CHAMFERC
 40
20.0
  9
$CHAMFERD
 40
0.0
  9
$SKPOLY
 70
     0
  9
$TDCREATE
 40
2453215.537408333
  9
$TDUCREATE
 40
2453215.162408334
  9
$TDUPDATE
 40
2457219.615351180
  9
$TDUUPDATE
 40
2457219.240351180
  9
$TDINDWG
 40
0.1310825810
  9
$TDUSRTIMER
 40
0.1310822685
  9
$USRTIMER
 70
     1
  9
$ANGBASE
 50
0.0
  9
$ANGDIR
 70
     0
  9
$PDMODE
 70
     0
  9
$PDSIZE
 40
0.0
  9
$PLINEWID
 40
0.0
  9
$SPLFRAME
 70
     0
  9
$SPLINETYPE
 70
     6
  9
$SPLINESEGS
 70
     8
  9
$HANDSEED
  5
14CF
  9
$SURFTAB1
 70
     6
  9
$SURFTAB2
 70
     6
  9
$SURFTYPE
 70
     6
  9
$SURFU
 70
     6
  9
$SURFV
 70
     6
  9
$UCSBASE
  2

  9
$UCSNAME
  2

  9
$UCSORG
 10
0.0
 20
0.0
 30
0.0
  9
$UCSXDIR
 10
1.0
 20
0.0
 30
0.0
  9
$UCSYDIR
 10
0.0
 20
1.0
 30
0.0
  9
$UCSORTHOREF
  2

  9
$UCSORTHOVIEW
 70
     0
  9
$UCSORGTOP
 10
0.0
 20
0.0
 30
0.0
  9
$UCSORGBOTTOM
 10
0.0
 20
0.0
 30
0.0
  9
$UCSORGLEFT
 10
0.0
 20
0.0
 30
0.0
  9
$UCSORGRIGHT
 10
0.0
 20
0.0
 30
0.0
  9
$UCSORGFRONT
 10
0.0
 20
0.0
 30
0.0
  9
$UCSORGBACK
 10
0.0
 20
0.0
 30
0.0
  9
$PUCSBASE
  2

  9
$PUCSNAME
  2

  9
$PUCSORG
 10
0.0
 20
0.0
 30
0.0
  9
$PUCSXDIR
 10
1.0
 20
0.0
 30
0.0
  9
$PUCSYDIR
 10
0.0
 20
1.0
 30
0.0
  9
$PUCSORTHOREF
  2

  9
$PUCSORTHOVIEW
 70
     0
  9
$PUCSORGTOP
 10
0.0
 20
0.0
 30
0.0
  9
$PUCSORGBOTTOM
 10
0.0
 20
0.0
 30
0.0
  9
$PUCSORGLEFT
 10
0.0
 20
0.0
 30
0.0
  9
$PUCSORGRIGHT
 10
0.0
 20
0.0
 30
0.0
  9
$PUCSORGFRONT
 10
0.0
 20
0.0
 30
0.0
  9
$PUCSORGBACK
 10
0.0
 20
0.0
 30
0.0
  9
$USERI1
 70
     0
  9
$USERI2
 70
     0
  9
$USERI3
 70
     0
  9
$USERI4
 70
     0
  9
$USERI5
 70
     0
  9
$USERR1
 40
0.0
  9
$USERR2
 40
0.0
  9
$USERR3
 40
0.0
  9
$USERR4
 40
0.0
  9
$USERR5
 40
0.0
  9
$WORLDVIEW
 70
     1
  9
$SHADEDGE
 70
     3
  9
$SHADEDIF
 70
    70
  9
$TILEMODE
 70
     0
  9
$MAXACTVP
 70
    64
  9
$PINSBASE
 10
0.0
 20
0.0
 30
0.0
  9
$PLIMCHECK
 70
     0
  9
$PEXTMIN
 10
90.59978389308492
 20
40.82851502783092
 30
-0.0000000349181948
  9
$PEXTMAX
 10
199.7153417175178
 20
123.0576020036956
 30
0.0000000814935747
  9
$PLIMMIN
 10
-3.757080078125
 20
-4.180416584014891
  9
$PLIMMAX
 10
293.2112426757813
 20
205.7929110527039
  9
$UNITMODE
 70
     0
  9
$VISRETAIN
 70
     1
  9
$PLINEGEN
 70
     0
  9
$PSLTSCALE
 70
     1
  9
$TREEDEPTH
 70
  3020
  9
$CMLSTYLE
  2
Standard
  9
$CMLJUST
 70
     0
  9
$CMLSCALE
 40
20.0
  9
$PROXYGRAPHICS
 70
     1
  9
$MEASUREMENT
 70
     1
  9
$CELWEIGHT
370
    -1
  9
$ENDCAPS
280
     0
  9
$JOINSTYLE
280
     0
  9
$LWDISPLAY
290
     0
  9
$INSUNITS
 70
     4
  9
$HYPERLINKBASE
  1

  9
$STYLESHEET
  1

  9
$XEDIT
290
     1
  9
$CEPSNTYPE
380
     0
  9
$PSTYLEMODE
290
     1
  9
$FINGERPRINTGUID
  2
{FDEAD578-A652-11D2-9A35-0060089B3A3F}
  9
$VERSIONGUID
  2
{8BC0AF89-EF9F-47D7-8F5F-84A9A85F958C}
  9
$EXTNAMES
290
     1
  9
$PSVPSCALE
 40
0.0
  9
$OLESTARTUP
290
     0
  9
$SORTENTS
280
   127
  9
$INDEXCTL
280
     0
  9
$HIDETEXT
280
     0
  9
$XCLIPFRAME
280
     2
  9
$HALOGAP
280
     0
  9
$OBSCOLOR
 70
   257
  9
$OBSLTYPE
280
     0
  9
$INTERSECTIONDISPLAY
280
     0
  9
$INTERSECTIONCOLOR
 70
   257
  9
$DIMASSOC
280
     1
  9
$PROJECTNAME
  1

  9
$CAMERADISPLAY
290
     0
  9
$LENSLENGTH
 40
50.0
  9
$CAMERAHEIGHT
 40
0.0
  9
$STEPSPERSEC
 40
2.0
  9
$STEPSIZE
 40
6.0
  9
$3DDWFPREC
 40
2.0
  9
$PSOLWIDTH
 40
0.25
  9
$PSOLHEIGHT
 40
4.0
  9
$LOFTANG1
 40
1.570796326794896
  9
$LOFTANG2
 40
1.570796326794896
  9
$LOFTMAG1
 40
0.0
  9
$LOFTMAG2
 40
0.0
  9
$LOFTPARAM
 70
     7
  9
$LOFTNORMALS
280
     1
  9
$LATITUDE
 40
37.795
  9
$LONGITUDE
 40
-122.394
  9
$NORTHDIRECTION
 40
0.0
  9
$TIMEZONE
 70
 -8000
  9
$LIGHTGLYPHDISPLAY
280
     1
  9
$TILEMODELIGHTSYNCH
280
     1
  9
$CMATERIAL
347
82F
  9
$SOLIDHIST
280
     0
  9
$SHOWHIST
280
     1
  9
$DWFFRAME
280
     2
  9
$DGNFRAME
280
     0
  9
$REALWORLDSCALE
290
     1
  9
$INTERFERECOLOR
 62
     1
  9
$INTERFEREOBJVS
345
851
  9
$INTERFEREVPVS
346
84E
  9
$CSHADOW
280
     0
  9
$SHADOWPLANELOCATION
 40
0.0
  0
ENDSEC
  0
SECTION
  2
CLASSES
  0
CLASS
  1
ACDBDICTIONARYWDFLT
  2
AcDbDictionaryWithDefault
  3
ObjectDBX Classes
 90
        0
 91
        1
280
     0
281
     0
  0
CLASS
  1
MATERIAL
  2
AcDbMaterial
  3
ObjectDBX Classes
 90
     1153
 91
        3
280
     0
281
     0
  0
CLASS
  1
VISUALSTYLE
  2
AcDbVisualStyle
  3
ObjectDBX Classes
 90
     4095
 91
       24
280
     0
281
     0
  0
CLASS
  1
TABLESTYLE
  2
AcDbTableStyle
  3
ObjectDBX Classes
 90
     4095
 91
        1
280
     0
281
     0
  0
CLASS
  1
SCALE
  2
AcDbScale
  3
ObjectDBX Classes
 90
     1153
 91
       17
280
     0
281
     0
  0
CLASS
  1
MLEADERSTYLE
  2
AcDbMLeaderStyle
  3
ACDB_MLEADERSTYLE_CLASS
 90
     4095
 91
        1
280
     0
281
     0
  0
CLASS
  1
ACDBSECTIONVIEWSTYLE
  2
AcDbSectionViewStyle
  3
ObjectDBX Classes
 90
     1025
 91
        1
280
     0
281
     0
  0
CLASS
  1
ACDBDETAILVIEWSTYLE
  2
AcDbDetailViewStyle
  3
ObjectDBX Classes
 90
     1025
 91
        1
280
     0
281
     0
  0
CLASS
  1
DICTIONARYVAR
  2
AcDbDictionaryVar
  3
ObjectDBX Classes
 90
        0
 91
        9
280
     0
281
     0
  0
CLASS
  1
SORTENTSTABLE
  2
AcDbSortentsTable
  3
ObjectDBX Classes
 90
        0
 91
        1
280
     0
281
     0
  0
CLASS
  1
CELLSTYLEMAP
  2
AcDbCellStyleMap
  3
ObjectDBX Classes
 90
     1152
 91
        2
280
     0
281
     0
  0
ENDSEC
  0
SECTION
  2
TABLES
  0
TABLE
  2
VPORT
  5
8
330
0
100
AcDbSymbolTable
 70
     1
  0
VPORT
  5
829
330
8
100
AcDbSymbolTableRecord
100
AcDbViewportTableRecord
  2
*Active
 70
     0
 10
0.0
 20
0.0
 11
1.0
 21
1.0
 12
256.1172745952378
 22
170.5632833223539
 13
0.0
 23
0.0
 14
10.0
 24
10.0
 15
10.0
 25
10.0
 16
0.0
 26
0.0
 36
1.0
 17
0.0
 27
0.0
 37
0.0
 40
434.7579660931748
 41
1.961965134706813
 42
50.0
 43
0.0
 44
0.0
 50
0.0
 51
0.0
 71
     0
 72
 20000
 73
     1
 74
     3
 75
     0
 76
     0
 77
     0
 78
     0
281
     0
 65
     1
110
0.0
120
0.0
130
0.0
111
1.0
121
0.0
131
0.0
112
0.0
122
1.0
132
0.0
 79
     0
146
0.0
348
84D
 60
     3
 61
     5
292
     1
282
     1
141
0.0
142
0.0
 63
   250
421
  3355443
1001
ACAD_NAV_VCDISPLAY
1070
     3
  0
ENDTAB
  0
TABLE
  2
LTYPE
  5
5
330
0
100
AcDbSymbolTable
 70
     5
  0
LTYPE
  5
14
330
5
100
AcDbSymbolTableRecord
100
AcDbLinetypeTableRecord
  2
ByBlock
 70
     0
  3

 72
    65
 73
     0
 40
0.0
  0
LTYPE
  5
15
330
5
100
AcDbSymbolTableRecord
100
AcDbLinetypeTableRecord
  2
ByLayer
 70
     0
  3

 72
    65
 73
     0
 40
0.0
  0
LTYPE
  5
16
330
5
100
AcDbSymbolTableRecord
100
AcDbLinetypeTableRecord
  2
Continuous
 70
     0
  3
Solid line
 72
    65
 73
     0
 40
0.0
  0
LTYPE
  5
B5
330
5
100
AcDbSymbolTableRecord
100
AcDbLinetypeTableRecord
  2
CENTER2
 70
     0
  3
Center (.5x) ___ _ ___ _ ___ _ ___ _ ___ _ ___
 72
    65
 73
     4
 40
28.57499999999999
 49
19.05
 74
     0
 49
-3.174999999999998
 74
     0
 49
3.174999999999998
 74
     0
 49
-3.174999999999998
 74
     0
  0
LTYPE
  5
B6
330
5
100
AcDbSymbolTableRecord
100
AcDbLinetypeTableRecord
  2
HIDDEN2
 70
     0
  3
Hidden (.5x) _ _ _ _ _ _ _ _ _ _ _ _ _ _ _ _ _
 72
    65
 73
     2
 40
4.762499999999998
 49
3.174999999999998
 74
     0
 49
-1.587499999999999
 74
     0
  0
LTYPE
  5
D6F
330
5
100
AcDbSymbolTableRecord
100
AcDbLinetypeTableRecord
  2
CENTER
 70
     0
  3
- ･ - ･ - ･ - ･ - ･ - ･ - ･ - ･ - ･ - ･ -
 72
    65
 73
     4
 40
51.0
 49
31.8
 74
     0
 49
-6.4
 74
     0
 49
6.4
 74
     0
 49
-6.4
 74
     0
  0
LTYPE
  5
D70
330
5
100
AcDbSymbolTableRecord
100
AcDbLinetypeTableRecord
  2
DOT
 70
     0
  3
・・・・・・・・・・・・・・・
 72
    65
 73
     2
 40
6.5
 49
0.1
 74
     0
 49
-6.4
 74
     0
  0
ENDTAB
  0
TABLE
  2
LAYER
  5
2
102
{ACAD_XDICTIONARY
360
886
102
}
330
0
100
AcDbSymbolTable
 70
    11
  0
LAYER
  5
10
102
{ACAD_XDICTIONARY
360
B7E
102
}
330
2
100
AcDbSymbolTableRecord
100
AcDbLayerTableRecord
  2
0
 70
     0
 62
     7
  6
Continuous
370
    -3
390
F
347
83F
  0
LAYER
  5
B7
102
{ACAD_XDICTIONARY
360
B80
102
}
330
2
100
AcDbSymbolTableRecord
100
AcDbLayerTableRecord
  2
中心
 70
     0
 62
     7
  6
CENTER2
370
     5
390
F
347
83F
  0
LAYER
  5
B8
102
{ACAD_XDICTIONARY
360
B82
102
}
330
2
100
AcDbSymbolTableRecord
100
AcDbLayerTableRecord
  2
実線
 70
     0
 62
     7
  6
Continuous
370
    25
390
F
347
83F
  0
LAYER
  5
B9
102
{ACAD_XDICTIONARY
360
B84
102
}
330
2
100
AcDbSymbolTableRecord
100
AcDbLayerTableRecord
  2
寸法
 70
     0
 62
     7
  6
Continuous
370
     9
390
F
347
83F
  0
LAYER
  5
BA
330
2
100
AcDbSymbolTableRecord
100
AcDbLayerTableRecord
  2
Defpoints
 70
     0
 62
     7
  6
Continuous
290
     0
370
    -3
390
F
347
83F
  0
LAYER
  5
BB
102
{ACAD_XDICTIONARY
360
B86
102
}
330
2
100
AcDbSymbolTableRecord
100
AcDbLayerTableRecord
  2
文字
 70
     0
 62
     7
  6
Continuous
370
    15
390
F
347
83F
  0
LAYER
  5
BC
102
{ACAD_XDICTIONARY
360
B88
102
}
330
2
100
AcDbSymbolTableRecord
100
AcDbLayerTableRecord
  2
グラデーション
 70
     0
 62
     7
  6
Continuous
370
    13
390
F
347
83F
  0
LAYER
  5
BD
102
{ACAD_XDICTIONARY
360
B8A
102
}
330
2
100
AcDbSymbolTableRecord
100
AcDbLayerTableRecord
  2
細線
 70
     0
 62
     7
  6
Continuous
370
    15
390
F
347
83F
  0
LAYER
  5
BE
102
{ACAD_XDICTIONARY
360
B8C
102
}
330
2
100
AcDbSymbolTableRecord
100
AcDbLayerTableRecord
  2
点線
 70
     0
 62
     7
  6
HIDDEN2
370
     5
390
F
347
83F
  0
LAYER
  5
BF
102
{ACAD_XDICTIONARY
360
B8E
102
}
330
2
100
AcDbSymbolTableRecord
100
AcDbLayerTableRecord
  2
図枠
 70
     0
 62
     7
  6
Continuous
370
    -3
390
F
347
83F
  0
LAYER
  5
C0
102
{ACAD_XDICTIONARY
360
B90
102
}
330
2
100
AcDbSymbolTableRecord
100
AcDbLayerTableRecord
  2
目盛
 70
     0
 62
     7
  6
Continuous
370
    30
390
F
347
83F
  0
ENDTAB
  0
TABLE
  2
STYLE
  5
3
330
0
100
AcDbSymbolTable
 70
     5
  0
STYLE
  5
11
330
3
100
AcDbSymbolTableRecord
100
AcDbTextStyleTableRecord
  2
Standard
 70
     0
 40
0.0
 41
1.0
 50
0.0
 71
     0
 42
2.5
  3
txt
  4

  0
STYLE
  5
C1
330
3
100
AcDbSymbolTableRecord
100
AcDbTextStyleTableRecord
  2
寸法
 70
     0
 40
0.0
 41
1.0
 50
0.0
 71
     0
 42
1.25
  3
romans.shx
  4
bigfont.shx
  0
STYLE
  5
C2
330
3
100
AcDbSymbolTableRecord
100
AcDbTextStyleTableRecord
  2
表題
 70
     0
 40
0.0
 41
1.0
 50
0.0
 71
     0
 42
5.5
  3
romans.shx
  4
bigfont.shx
  0
STYLE
  5
C3
330
3
100
AcDbSymbolTableRecord
100
AcDbTextStyleTableRecord
  2
文字
 70
     0
 40
0.0
 41
1.0
 50
0.0
 71
     0
 42
2.0
  3
romans.shx
  4
bigfont.shx
  0
STYLE
  5
D71
330
3
100
AcDbSymbolTableRecord
100
AcDbTextStyleTableRecord
  2
ED_VECTOR
 70
     0
 40
0.0
 41
1.0
 50
0.0
 71
     0
 42
0.2
  3
MS PGothic.ttf
  4

1001
ACAD
1000
MS PGothic
1071
    32818
  0
ENDTAB
  0
TABLE
  2
VIEW
  5
6
330
0
100
AcDbSymbolTable
 70
     0
  0
ENDTAB
  0
TABLE
  2
UCS
  5
7
330
0
100
AcDbSymbolTable
 70
     0
  0
ENDTAB
  0
TABLE
  2
APPID
  5
9
330
0
100
AcDbSymbolTable
 70
     7
  0
APPID
  5
12
330
9
100
AcDbSymbolTableRecord
100
AcDbRegAppTableRecord
  2
ACAD
 70
     0
  0
APPID
  5
87E
330
9
100
AcDbSymbolTableRecord
100
AcDbRegAppTableRecord
  2
ACAD_NAV_VCDISPLAY
 70
     0
  0
APPID
  5
892
330
9
100
AcDbSymbolTableRecord
100
AcDbRegAppTableRecord
  2
ACAD_PSEXT
 70
     0
  0
APPID
  5
A79
330
9
100
AcDbSymbolTableRecord
100
AcDbRegAppTableRecord
  2
ACAD_EXEMPT_FROM_CAD_STANDARDS
 70
     0
  0
APPID
  5
C38
330
9
100
AcDbSymbolTableRecord
100
AcDbRegAppTableRecord
  2
ACAD_MLEADERVER
 70
     0
  0
APPID
  5
D73
330
9
100
AcDbSymbolTableRecord
100
AcDbRegAppTableRecord
  2
ACAD_DSTYLE_DIMJAG
 70
     0
  0
APPID
  5
D74
330
9
100
AcDbSymbolTableRecord
100
AcDbRegAppTableRecord
  2
ACAD_DSTYLE_DIMTALN
 70
     0
  0
ENDTAB
  0
TABLE
  2
DIMSTYLE
  5
A
330
0
100
AcDbSymbolTable
 70
     4
100
AcDbDimStyleTable
 71
     1
340
27
  0
DIMSTYLE
105
27
330
A
100
AcDbSymbolTableRecord
100
AcDbDimStyleTableRecord
  2
ISO-25
 70
     0
 41
2.5
 42
0.625
 43
3.75
 44
1.25
 73
     0
 74
     0
 77
     1
 78
     8
140
2.5
141
2.5
143
0.03937007874016
147
1.0
171
     3
172
     1
271
     3
272
     3
274
     3
283
     0
284
     8
340
C1
  0
DIMSTYLE
105
4CE
330
A
100
AcDbSymbolTableRecord
100
AcDbDimStyleTableRecord
  2
寸法1：1
 70
     0
 41
2.5
 42
1.0
 43
3.75
 44
1.25
 73
     0
 74
     0
 77
     1
 78
     8
140
2.5
141
2.5
143
0.03937007874016
147
0.625
171
     3
172
     1
271
     2
272
     2
274
     3
283
     0
284
     8
340
C1
  0
DIMSTYLE
105
4CF
330
A
100
AcDbSymbolTableRecord
100
AcDbDimStyleTableRecord
  2
寸法2：1
 70
     0
 41
1.25
 42
0.5
 43
3.75
 44
0.65
 73
     0
 74
     0
 77
     1
 78
     8
140
1.5
141
2.5
143
0.03937007874016
147
0.625
171
     3
172
     1
271
     2
272
     2
274
     3
283
     0
284
     8
340
C1
  0
DIMSTYLE
105
D72
330
A
100
AcDbSymbolTableRecord
100
AcDbDimStyleTableRecord
  2
EDDIMINFO
 70
     0
 41
3.0
 42
1.0
 43
10.0
 44
1.0
 46
5.0
 73
     0
 74
     0
 77
     1
 78
     8
140
3.5
141
2.5
143
0.03937
147
1.0
171
     3
172
     1
173
     1
176
     6
177
     6
178
     7
179
     3
271
     3
272
     3
274
     3
283
     0
284
     8
340
D71
341
CE5
343
CE5
344
CEB
1001
ACAD_DSTYLE_DIMJAG
1070
   388
1040
1.5
1001
ACAD_DSTYLE_DIMTALN
1070
   392
1070
     0
  0
ENDTAB
  0
TABLE
  2
BLOCK_RECORD
  5
1
330
0
100
AcDbSymbolTable
 70
    19
  0
BLOCK_RECORD
  5
1F
330
1
100
AcDbSymbolTableRecord
100
AcDbBlockTableRecord
  2
*Model_Space
340
22
 70
     0
280
     1
281
     0
  0
BLOCK_RECORD
  5
87F
102
{ACAD_XDICTIONARY
360
ABC
102
}
330
1
100
AcDbSymbolTableRecord
100
AcDbBlockTableRecord
  2
*Paper_Space
340
880
 70
     0
280
     1
281
     0
  0
BLOCK_RECORD
  5
44
330
1
100
AcDbSymbolTableRecord
100
AcDbBlockTableRecord
  2
ﾈｼﾞ
340
0
310
28000000200000002000000001000800000000000004000000000000000000000000000000000000000000004000000080000000FF000000002000004020000080200000FF200000004000004040000080400000FF400000006000004060000080600000FF600000008000004080000080800000FF80000000A0000040A000
310
0080A00000FFA0000000C0000040C0000080C00000FFC0000000FF000040FF000080FF0000FFFF0000000020004000200080002000FF002000002020004020200080202000FF202000004020004040200080402000FF402000006020004060200080602000FF602000008020004080200080802000FF80200000A0200040A0
310
200080A02000FFA0200000C0200040C0200080C02000FFC0200000FF200040FF200080FF2000FFFF2000000040004000400080004000FF004000002040004020400080204000FF204000004040004040400080404000FF404000006040004060400080604000FF604000008040004080400080804000FF80400000A0400040
310
A0400080A04000FFA0400000C0400040C0400080C04000FFC0400000FF400040FF400080FF4000FFFF4000000060004000600080006000FF006000002060004020600080206000FF206000004060004040600080406000FF406000006060004060600080606000FF606000008060004080600080806000FF80600000A06000
310
40A0600080A06000FFA0600000C0600040C0600080C06000FFC0600000FF600040FF600080FF6000FFFF6000000080004000800080008000FF008000002080004020800080208000FF208000004080004040800080408000FF408000006080004060800080608000FF608000008080004080800080808000FF80800000A080
310
0040A0800080A08000FFA0800000C0800040C0800080C08000FFC0800000FF800040FF800080FF8000FFFF80000000A0004000A0008000A000FF00A0000020A0004020A0008020A000FF20A0000040A0004040A0008040A000FF40A0000060A0004060A0008060A000FF60A0000080A0004080A0008080A000FF80A00000A0
310
A00040A0A00080A0A000FFA0A00000C0A00040C0A00080C0A000FFC0A00000FFA00040FFA00080FFA000FFFFA0000000C0004000C0008000C000FF00C0000020C0004020C0008020C000FF20C0000040C0004040C0008040C000FF40C0000060C0004060C0008060C000FF60C0000080C0004080C0008080C000FF80C00000
310
A0C00040A0C00080A0C000FFA0C00000C0C00040C0C00080C0C000FFC0C00000FFC00040FFC00080FFC000FFFFC0000000FF004000FF008000FF00FF00FF000020FF004020FF008020FF00FF20FF000040FF004040FF008040FF00FF40FF000060FF004060FF008060FF00FF60FF000080FF004080FF008080FF00FF80FF00
310
00A0FF0040A0FF0080A0FF00FFA0FF0000C0FF0040C0FF0080C0FF00FFC0FF0000FFFF0040FFFF0080FFFF00FFFFFF000000000000000000000000000000000000000000000000000000000000000000000000FFFFFFFFFFFFFFFFFFFFFFFFFFFFFFFFFFFFFFFFFFFFFFFFFFFF0000000000FF000000000000000000000000
310
0000000000000000000000000000FF0000001F1F1F1F1F1F1F1F1F1F1F1F1F1F1F1F1F1F1F1F1F1F1F1F1F1F1F1F1F1F0000FFFCFC0000FC00FC000000FC0000FC000000FC000000FC00FC0000FCFCFF0000FFFCFC0000FC00FC000000FC0000FC000000FC000000FC00FC0000FCFCFF0000FFFCFC0000FC00FC000000FC00
310
00FC000000FC000000FC00FC0000FCFCFF0000FFFCFC0000FC00FC000000FC0000FC000000FC000000FC00FC0000FCFCFF0000FFFCFC0000FC00FC000000FC0000FC000000FC000000FC00FC0000FCFCFF0000FFFCFC0000FC00FC000000FC0000FC000000FC000000FC00FC0000FCFCFF0000FFFCFC0000FC00FC000000FC
310
0000FC000000FC000000FC00FC0000FCFCFF0000FFFCFC0000FC00FC000000FC0000FC000000FC000000FC00FC0000FCFCFF0000FFFCFC0000FC00FC000000FC0000FC000000FC000000FC00FC0000FCFCFF0000FFFCFC0000FC00FC000000FC0000FC000000FC000000FC00FC0000FCFCFF0000FFFCFC0000FC00FC000000
310
FC0000FC000000FC000000FC00FC0000FCFCFF0000FFFCFC0000FC00FC000000FC0000FC000000FC000000FC00FC0000FCFCFF0000FFFCFC0000FC00FC000000FC0000FC000000FC000000FC00FC0000FCFCFF0000FFFCFC0000FC00FC000000FC0000FC000000FC000000FC00FC0000FCFCFF0000FFFCFC0000FC00FC0000
310
00FC0000FC000000FC000000FC00FC0000FCFCFF0000FFFCFC0000FC00FC000000FC0000FC000000FC000000FC00FC0000FCFCFF0000FFFCFC0000FC00FC000000FC0000FC000000FC000000FC00FC0000FCFCFF0000FFFCFC0000FC00FC000000FC0000FC000000FC000000FC00FC0000FCFCFF0000FFFCFC0000FC00FC00
310
0000FC0000FC000000FC000000FC00FC0000FCFCFF0000FFFCFC0000FC00FC000000FC0000FC000000FC000000FC00FC0000FCFCFF0000FFFCFC0000FC00FC000000FC0000FC000000FC000000FC00FC0000FCFCFF0000FFFCFC0000FC00FC000000FC0000FC000000FC000000FC00FC0000FCFCFF0000FFFCFC0000FC00FC
310
000000FC0000FC000000FC000000FC00FC0000FCFCFF0000FFFCFC0000FC00FC000000FC0000FC000000FC000000FC00FC0000FCFCFF00001F1F1F1F1F1F1F1F1F1F1F1F1F1F1F1F1F1F1F1F1F1F1F1F1F1F1F1F1F1F000000FF0000000000000000000000000000000000000000000000000000FF0000000000FFFFFFFFFF
310
FFFFFFFFFFFFFFFFFFFFFFFFFFFFFFFFFFFFFFFFFF0000000000000000000000000000000000000000000000000000000000000000000000
 70
     4
280
     1
281
     0
  0
BLOCK_RECORD
  5
CE5
330
1
100
AcDbSymbolTableRecord
100
AcDbBlockTableRecord
  2
EDTIP_ARROW_S
340
0
102
{BLKREFS
331
D68
331
D50
331
D5C
331
102C
331
1035
331
103E
331
1047
331
1050
331
1059
331
D2C
331
D38
331
D44
102
}
 70
     0
280
     1
281
     0
  0
BLOCK_RECORD
  5
CEB
330
1
100
AcDbSymbolTableRecord
100
AcDbBlockTableRecord
  2
EDTIP_ARROW_E
340
0
102
{BLKREFS
331
D69
331
D51
331
D5D
331
102D
331
1036
331
103F
331
1051
331
105A
331
1048
331
D2D
331
D39
331
D45
102
}
 70
     0
280
     1
281
     0
  0
BLOCK_RECORD
  5
CF1
330
1
100
AcDbSymbolTableRecord
100
AcDbBlockTableRecord
  2
BLKF014
340
0
 70
     0
280
     1
281
     0
  0
BLOCK_RECORD
  5
D0C
330
1
100
AcDbSymbolTableRecord
100
AcDbBlockTableRecord
  2
BLKF015
340
0
 70
     0
280
     1
281
     0
  0
BLOCK_RECORD
  5
D27
330
1
100
AcDbSymbolTableRecord
100
AcDbBlockTableRecord
  2
*D5
340
0
 70
     0
280
     1
281
     0
  0
BLOCK_RECORD
  5
D33
330
1
100
AcDbSymbolTableRecord
100
AcDbBlockTableRecord
  2
*D6
340
0
 70
     0
280
     1
281
     0
  0
BLOCK_RECORD
  5
D3F
330
1
100
AcDbSymbolTableRecord
100
AcDbBlockTableRecord
  2
*D7
340
0
 70
     0
280
     1
281
     0
  0
BLOCK_RECORD
  5
D4B
330
1
100
AcDbSymbolTableRecord
100
AcDbBlockTableRecord
  2
*D8
340
0
 70
     0
280
     1
281
     0
  0
BLOCK_RECORD
  5
D57
330
1
100
AcDbSymbolTableRecord
100
AcDbBlockTableRecord
  2
*D9
340
0
 70
     0
280
     1
281
     0
  0
BLOCK_RECORD
  5
D63
330
1
100
AcDbSymbolTableRecord
100
AcDbBlockTableRecord
  2
*D10
340
0
 70
     0
280
     1
281
     0
  0
BLOCK_RECORD
  5
FE1
330
1
100
AcDbSymbolTableRecord
100
AcDbBlockTableRecord
  2
*D11
340
0
 70
     0
280
     1
281
     0
  0
BLOCK_RECORD
  5
FED
330
1
100
AcDbSymbolTableRecord
100
AcDbBlockTableRecord
  2
*D12
340
0
 70
     0
280
     1
281
     0
  0
BLOCK_RECORD
  5
FF9
330
1
100
AcDbSymbolTableRecord
100
AcDbBlockTableRecord
  2
*D13
340
0
 70
     0
280
     1
281
     0
  0
BLOCK_RECORD
  5
1005
330
1
100
AcDbSymbolTableRecord
100
AcDbBlockTableRecord
  2
*D14
340
0
 70
     0
280
     1
281
     0
  0
BLOCK_RECORD
  5
1011
330
1
100
AcDbSymbolTableRecord
100
AcDbBlockTableRecord
  2
*D15
340
0
 70
     0
280
     1
281
     0
  0
BLOCK_RECORD
  5
101D
330
1
100
AcDbSymbolTableRecord
100
AcDbBlockTableRecord
  2
*D16
340
0
 70
     0
280
     1
281
     0
  0
BLOCK_RECORD
  5
105F
330
1
100
AcDbSymbolTableRecord
100
AcDbBlockTableRecord
  2
_DotSmall
340
0
 70
     0
280
     1
281
     0
  0
BLOCK_RECORD
  5
1063
330
1
100
AcDbSymbolTableRecord
100
AcDbBlockTableRecord
  2
_Open30
340
0
 70
     0
280
     1
281
     0
  0
ENDTAB
  0
ENDSEC
  0
SECTION
  2
BLOCKS
  0
BLOCK
  5
20
330
1F
100
AcDbEntity
  8
0
100
AcDbBlockBegin
  2
*Model_Space
 70
     0
 10
0.0
 20
0.0
 30
0.0
  3
*Model_Space
  1

  0
ENDBLK
  5
21
330
1F
100
AcDbEntity
  8
0
100
AcDbBlockEnd
  0
BLOCK
  5
881
330
87F
100
AcDbEntity
 67
     1
  8
0
100
AcDbBlockBegin
  2
*Paper_Space
 70
     0
 10
0.0
 20
0.0
 30
0.0
  3
*Paper_Space
  1

  0
ENDBLK
  5
882
330
87F
100
AcDbEntity
 67
     1
  8
0
100
AcDbBlockEnd
  0
BLOCK
  5
53
330
44
100
AcDbEntity
  8
0
100
AcDbBlockBegin
  2
ﾈｼﾞ
 70
     0
 10
0.0
 20
0.0
 30
0.0
  3
ﾈｼﾞ
  1

  0
LINE
  5
45
330
44
100
AcDbEntity
  8
グラデーション
100
AcDbLine
 10
-0.5176380902050397
 20
3.799999999999997
 30
0.0
 11
-0.5176380902050397
 21
0.2000000000000028
 31
0.0
  0
LINE
  5
46
330
44
100
AcDbEntity
  8
グラデーション
100
AcDbLine
 10
-1.0
 20
3.799999999999997
 30
0.0
 11
-1.0
 21
0.2000000000000028
 31
0.0
  0
LINE
  5
47
330
44
100
AcDbEntity
  8
グラデーション
100
AcDbLine
 10
-1.732050807568881
 20
3.799999999999997
 30
0.0
 11
-1.732050807568881
 21
0.2000000000000028
 31
0.0
  0
LINE
  5
48
330
44
100
AcDbEntity
  8
グラデーション
100
AcDbLine
 10
-1.41421356237309
 20
3.799999999999997
 30
0.0
 11
-1.41421356237309
 21
0.2000000000000028
 31
0.0
  0
LINE
  5
49
330
44
100
AcDbEntity
  8
グラデーション
100
AcDbLine
 10
-1.931851652578129
 20
3.799999999999997
 30
0.0
 11
-1.931851652578129
 21
0.2000000000000028
 31
0.0
  0
LINE
  5
4A
330
44
100
AcDbEntity
  8
グラデーション
100
AcDbLine
 10
1.41421356237309
 20
3.799999999999997
 30
0.0
 11
1.41421356237309
 21
0.2000000000000028
 31
0.0
  0
LINE
  5
4B
330
44
100
AcDbEntity
  8
グラデーション
100
AcDbLine
 10
1.931851652578129
 20
3.799999999999997
 30
0.0
 11
1.931851652578129
 21
0.2000000000000028
 31
0.0
  0
LINE
  5
4C
330
44
100
AcDbEntity
  8
グラデーション
100
AcDbLine
 10
1.732050807568881
 20
3.799999999999997
 30
0.0
 11
1.732050807568881
 21
0.2000000000000028
 31
0.0
  0
LINE
  5
4D
330
44
100
AcDbEntity
  8
グラデーション
100
AcDbLine
 10
1.0
 20
3.799999999999997
 30
0.0
 11
1.0
 21
0.2000000000000028
 31
0.0
  0
LINE
  5
4E
330
44
100
AcDbEntity
  8
グラデーション
100
AcDbLine
 10
0.5176380902050397
 20
3.799999999999997
 30
0.0
 11
0.5176380902050397
 21
0.2000000000000028
 31
0.0
  0
LINE
  5
4F
330
44
100
AcDbEntity
  8
グラデーション
100
AcDbLine
 10
0.0
 20
3.799999999999997
 30
0.0
 11
0.0
 21
0.2000000000000028
 31
0.0
  0
LWPOLYLINE
  5
50
330
44
100
AcDbEntity
  8
実線
100
AcDbPolyline
 90
        8
 70
     1
 43
0.0
 10
-1.799999999999995
 20
0.0
 10
1.799999999999995
 20
0.0
 10
2.0
 20
0.2000000000000028
 10
2.0
 20
3.799999999999997
 10
1.799999999999995
 20
4.0
 10
-1.799999999999995
 20
4.0
 10
-2.0
 20
3.799999999999997
 10
-2.0
 20
0.2000000000000028
  0
LINE
  5
51
330
44
100
AcDbEntity
  8
細線
100
AcDbLine
 10
-2.0
 20
0.2000000000000028
 30
0.0
 11
2.0
 21
0.2000000000000028
 31
0.0
  0
LINE
  5
52
330
44
100
AcDbEntity
  8
細線
100
AcDbLine
 10
-2.0
 20
3.799999999999997
 30
0.0
 11
2.0
 21
3.799999999999997
 31
0.0
  0
ENDBLK
  5
54
330
44
100
AcDbEntity
  8
0
100
AcDbBlockEnd
  0
BLOCK
  5
CE6
330
CE5
100
AcDbEntity
  8
0
100
AcDbBlockBegin
  2
EDTIP_ARROW_S
 70
     0
 10
0.0
 20
0.0
 30
0.0
  3
EDTIP_ARROW_S
  1

  0
LINE
  5
CE7
330
CE5
100
AcDbEntity
  8
0
  6
Continuous
 62
     0
370
    -2
100
AcDbLine
 10
0.0
 20
0.0
 30
0.0
 11
-1.0
 21
0.0
 31
0.0
  0
LINE
  5
CE8
330
CE5
100
AcDbEntity
  8
0
  6
Continuous
 62
     0
370
    -2
100
AcDbLine
 10
0.0
 20
0.0
 30
0.0
 11
-0.9659258262890679
 21
0.2588190451025207
 31
0.0
  0
LINE
  5
CE9
330
CE5
100
AcDbEntity
  8
0
  6
Continuous
 62
     0
370
    -2
100
AcDbLine
 10
0.0
 20
0.0
 30
0.0
 11
-0.9659258262890679
 21
-0.2588190451025207
 31
0.0
  0
ENDBLK
  5
CEA
330
CE5
100
AcDbEntity
  8
0
100
AcDbBlockEnd
  0
BLOCK
  5
CEC
330
CEB
100
AcDbEntity
  8
0
100
AcDbBlockBegin
  2
EDTIP_ARROW_E
 70
     0
 10
0.0
 20
0.0
 30
0.0
  3
EDTIP_ARROW_E
  1

  0
LINE
  5
CED
330
CEB
100
AcDbEntity
  8
0
  6
Continuous
 62
     0
370
    -2
100
AcDbLine
 10
0.0
 20
0.0
 30
0.0
 11
-1.0
 21
0.0
 31
0.0
  0
LINE
  5
CEE
330
CEB
100
AcDbEntity
  8
0
  6
Continuous
 62
     0
370
    -2
100
AcDbLine
 10
0.0
 20
0.0
 30
0.0
 11
-0.9659258262890679
 21
-0.2588190451025208
 31
0.0
  0
LINE
  5
CEF
330
CEB
100
AcDbEntity
  8
0
  6
Continuous
 62
     0
370
    -2
100
AcDbLine
 10
0.0
 20
0.0
 30
0.0
 11
-0.9659258262890679
 21
0.258819045102521
 31
0.0
  0
ENDBLK
  5
CF0
330
CEB
100
AcDbEntity
  8
0
100
AcDbBlockEnd
  0
BLOCK
  5
CF2
330
CF1
100
AcDbEntity
  8
0
100
AcDbBlockBegin
  2
BLKF014
 70
     0
 10
0.0
 20
0.0
 30
0.0
  3
BLKF014
  1

  0
LINE
  5
CF3
330
CF1
100
AcDbEntity
  8
0
  6
Continuous
 62
     7
370
    -3
100
AcDbLine
 10
159.8706688861856
 20
87.58516483516487
 30
0.0
 11
159.8706688861856
 21
90.98516483516487
 31
0.0
  0
LINE
  5
CF4
330
CF1
100
AcDbEntity
  8
0
  6
Continuous
 62
     7
370
    -3
100
AcDbLine
 10
159.5865898423451
 20
87.58516483516487
 30
0.0
 11
159.5865898423451
 21
90.98516483516487
 31
0.0
  0
LINE
  5
CF5
330
CF1
100
AcDbEntity
  8
0
  6
Continuous
 62
     7
370
    -3
100
AcDbLine
 10
159.1441263581802
 20
87.58516483516487
 30
0.0
 11
159.1441263581802
 21
90.98516483516487
 31
0.0
  0
LINE
  5
CF6
330
CF1
100
AcDbEntity
  8
0
  6
Continuous
 62
     7
370
    -3
100
AcDbLine
 10
158.5865898423451
 20
87.58516483516487
 30
0.0
 11
158.5865898423451
 21
90.98516483516487
 31
0.0
  0
LINE
  5
CF7
330
CF1
100
AcDbEntity
  8
0
  6
Continuous
 62
     7
370
    -3
100
AcDbLine
 10
156.066442821005
 20
90.98516483516487
 30
0.0
 11
156.066442821005
 21
87.58516483516487
 31
0.0
  0
LINE
  5
CF8
330
CF1
100
AcDbEntity
  8
0
  6
Continuous
 62
     7
370
    -3
100
AcDbLine
 10
156.3505218648453
 20
90.98516483516487
 30
0.0
 11
156.3505218648453
 21
87.58516483516487
 31
0.0
  0
LINE
  5
CF9
330
CF1
100
AcDbEntity
  8
0
  6
Continuous
 62
     7
370
    -3
100
AcDbLine
 10
156.7929853490103
 20
90.98516483516487
 30
0.0
 11
156.7929853490103
 21
87.58516483516487
 31
0.0
  0
LINE
  5
CFA
330
CF1
100
AcDbEntity
  8
0
  6
Continuous
 62
     4
370
    -3
100
AcDbLine
 10
155.9685558535951
 20
90.98516483516487
 30
0.0
 11
159.9685558535953
 21
90.98516483516487
 31
0.0
  0
LINE
  5
CFB
330
CF1
100
AcDbEntity
  8
0
  6
Continuous
 62
     7
370
    -3
100
AcDbLine
 10
157.3505218648453
 20
90.98516483516487
 30
0.0
 11
157.3505218648453
 21
87.58516483516487
 31
0.0
  0
LINE
  5
CFC
330
CF1
100
AcDbEntity
  8
0
  6
Continuous
 62
     4
370
    -3
100
AcDbLine
 10
159.9685558535953
 20
87.58516483516487
 30
0.0
 11
155.9685558535951
 21
87.58516483516487
 31
0.0
  0
LINE
  5
CFD
330
CF1
100
AcDbEntity
  8
0
  6
Continuous
 62
     4
370
    -3
100
AcDbLine
 10
159.6685558535952
 20
91.2851648351649
 30
0.0
 11
159.9685558535953
 21
90.98516483516487
 31
0.0
  0
LINE
  5
CFE
330
CF1
100
AcDbEntity
  8
0
  6
Continuous
 62
     4
370
    -3
100
AcDbLine
 10
156.2685558535953
 20
91.2851648351649
 30
0.0
 11
155.9685558535951
 21
90.98516483516487
 31
0.0
  0
LINE
  5
CFF
330
CF1
100
AcDbEntity
  8
0
  6
Continuous
 62
     4
370
    -3
100
AcDbLine
 10
156.2685558535953
 20
87.28516483516489
 30
0.0
 11
155.9685558535951
 21
87.58516483516487
 31
0.0
  0
LINE
  5
D00
330
CF1
100
AcDbEntity
  8
0
  6
Continuous
 62
     4
370
    -3
100
AcDbLine
 10
159.9685558535953
 20
87.58516483516487
 30
0.0
 11
159.6685558535952
 21
87.28516483516489
 31
0.0
  0
LINE
  5
D01
330
CF1
100
AcDbEntity
  8
0
  6
Continuous
 62
     4
370
    -3
100
AcDbLine
 10
156.268555853595
 20
91.2851648351649
 30
0.0
 11
159.6685558535952
 21
91.2851648351649
 31
0.0
  0
LINE
  5
D02
330
CF1
100
AcDbEntity
  8
0
  6
Continuous
 62
     4
370
    -3
100
AcDbLine
 10
159.9685558535953
 20
87.58516483516487
 30
0.0
 11
159.9685558535953
 21
90.98516483516487
 31
0.0
  0
LINE
  5
D03
330
CF1
100
AcDbEntity
  8
0
  6
Continuous
 62
     4
370
    -3
100
AcDbLine
 10
156.2685558535953
 20
87.28516483516489
 30
0.0
 11
159.6685558535952
 21
87.28516483516489
 31
0.0
  0
LINE
  5
D04
330
CF1
100
AcDbEntity
  8
0
  6
Continuous
 62
     4
370
    -3
100
AcDbLine
 10
155.9685558535951
 20
90.98516483516487
 30
0.0
 11
155.9685558535951
 21
87.58516483516487
 31
0.0
  0
LINE
  5
D05
330
CF1
100
AcDbEntity
  8
0
  6
CENTER
 62
     6
370
    -3
100
AcDbLine
 10
157.9685558535953
 20
93.187502065537
 30
0.0
 11
157.9685558535953
 21
86.42674224509667
 31
0.0
  0
LINE
  5
D06
330
CF1
100
AcDbEntity
  8
0
  6
Continuous
 62
     4
370
    -3
100
AcDbLine
 10
158.9685558535953
 20
92.58516483516492
 30
0.0
 11
158.9685558535953
 21
91.2851648351649
 31
0.0
  0
LINE
  5
D07
330
CF1
100
AcDbEntity
  8
0
  6
Continuous
 62
     4
370
    -3
100
AcDbLine
 10
156.9685558535953
 20
92.58516483516492
 30
0.0
 11
156.9685558535953
 21
91.2851648351649
 31
0.0
  0
LINE
  5
D08
330
CF1
100
AcDbEntity
  8
0
  6
Continuous
 62
     7
370
    -3
100
AcDbLine
 10
158.7685558535953
 20
92.58516483516492
 30
0.0
 11
158.7685558535953
 21
91.2851648351649
 31
0.0
  0
LINE
  5
D09
330
CF1
100
AcDbEntity
  8
0
  6
Continuous
 62
     7
370
    -3
100
AcDbLine
 10
157.1685558535953
 20
91.2851648351649
 30
0.0
 11
157.1685558535953
 21
92.58516483516492
 31
0.0
  0
LINE
  5
D0A
330
CF1
100
AcDbEntity
  8
0
  6
Continuous
 62
     7
370
    -3
100
AcDbLine
 10
157.9685558535953
 20
87.58516483516487
 30
0.0
 11
157.9685558535953
 21
90.98516483516487
 31
0.0
  0
ENDBLK
  5
D0B
330
CF1
100
AcDbEntity
  8
0
100
AcDbBlockEnd
  0
BLOCK
  5
D0D
330
D0C
100
AcDbEntity
  8
0
100
AcDbBlockBegin
  2
BLKF015
 70
     0
 10
0.0
 20
0.0
 30
0.0
  3
BLKF015
  1

  0
LINE
  5
D0E
330
D0C
100
AcDbEntity
  8
0
  6
Continuous
 62
     4
370
    -3
100
AcDbLine
 10
128.1685558535953
 20
91.51932524101317
 30
0.0
 11
128.1685558535953
 21
88.11932524101322
 31
0.0
  0
LINE
  5
D0F
330
D0C
100
AcDbEntity
  8
0
  6
Continuous
 62
     4
370
    -3
100
AcDbLine
 10
128.4685558535952
 20
87.81932524101316
 30
0.0
 11
131.8685558535952
 21
87.81932524101316
 31
0.0
  0
LINE
  5
D10
330
D0C
100
AcDbEntity
  8
0
  6
Continuous
 62
     4
370
    -3
100
AcDbLine
 10
132.1685558535953
 20
88.11932524101322
 30
0.0
 11
132.1685558535953
 21
91.51932524101317
 31
0.0
  0
LINE
  5
D11
330
D0C
100
AcDbEntity
  8
0
  6
Continuous
 62
     4
370
    -3
100
AcDbLine
 10
131.8685558535952
 20
91.81932524101316
 30
0.0
 11
128.4685558535953
 21
91.81932524101316
 31
0.0
  0
LINE
  5
D12
330
D0C
100
AcDbEntity
  8
0
  6
Continuous
 62
     4
370
    -3
100
AcDbLine
 10
132.1685558535953
 20
88.11932524101322
 30
0.0
 11
131.8685558535952
 21
87.81932524101316
 31
0.0
  0
LINE
  5
D13
330
D0C
100
AcDbEntity
  8
0
  6
Continuous
 62
     4
370
    -3
100
AcDbLine
 10
128.4685558535952
 20
87.81932524101316
 30
0.0
 11
128.1685558535953
 21
88.11932524101322
 31
0.0
  0
LINE
  5
D14
330
D0C
100
AcDbEntity
  8
0
  6
Continuous
 62
     4
370
    -3
100
AcDbLine
 10
128.4685558535952
 20
91.81932524101316
 30
0.0
 11
128.1685558535953
 21
91.51932524101317
 31
0.0
  0
LINE
  5
D15
330
D0C
100
AcDbEntity
  8
0
  6
Continuous
 62
     4
370
    -3
100
AcDbLine
 10
131.8685558535952
 20
91.81932524101316
 30
0.0
 11
132.1685558535953
 21
91.51932524101317
 31
0.0
  0
LINE
  5
D16
330
D0C
100
AcDbEntity
  8
0
  6
Continuous
 62
     4
370
    -3
100
AcDbLine
 10
132.1685558535953
 20
88.11932524101322
 30
0.0
 11
128.1685558535952
 21
88.11932524101322
 31
0.0
  0
LINE
  5
D17
330
D0C
100
AcDbEntity
  8
0
  6
Continuous
 62
     7
370
    -3
100
AcDbLine
 10
129.5505218648454
 20
91.51932524101317
 30
0.0
 11
129.5505218648454
 21
88.11932524101322
 31
0.0
  0
LINE
  5
D18
330
D0C
100
AcDbEntity
  8
0
  6
Continuous
 62
     4
370
    -3
100
AcDbLine
 10
128.1685558535953
 20
91.51932524101317
 30
0.0
 11
132.1685558535953
 21
91.51932524101317
 31
0.0
  0
LINE
  5
D19
330
D0C
100
AcDbEntity
  8
0
  6
Continuous
 62
     7
370
    -3
100
AcDbLine
 10
128.9929853490103
 20
91.51932524101317
 30
0.0
 11
128.9929853490103
 21
88.11932524101322
 31
0.0
  0
LINE
  5
D1A
330
D0C
100
AcDbEntity
  8
0
  6
Continuous
 62
     7
370
    -3
100
AcDbLine
 10
128.5505218648454
 20
91.51932524101317
 30
0.0
 11
128.5505218648454
 21
88.11932524101322
 31
0.0
  0
LINE
  5
D1B
330
D0C
100
AcDbEntity
  8
0
  6
Continuous
 62
     7
370
    -3
100
AcDbLine
 10
128.2664428210049
 20
91.51932524101317
 30
0.0
 11
128.2664428210049
 21
88.11932524101322
 31
0.0
  0
LINE
  5
D1C
330
D0C
100
AcDbEntity
  8
0
  6
Continuous
 62
     7
370
    -3
100
AcDbLine
 10
130.7865898423451
 20
88.11932524101322
 30
0.0
 11
130.7865898423451
 21
91.51932524101317
 31
0.0
  0
LINE
  5
D1D
330
D0C
100
AcDbEntity
  8
0
  6
Continuous
 62
     7
370
    -3
100
AcDbLine
 10
131.3441263581802
 20
88.11932524101322
 30
0.0
 11
131.3441263581802
 21
91.51932524101317
 31
0.0
  0
LINE
  5
D1E
330
D0C
100
AcDbEntity
  8
0
  6
Continuous
 62
     7
370
    -3
100
AcDbLine
 10
131.7865898423451
 20
88.11932524101322
 30
0.0
 11
131.7865898423451
 21
91.51932524101317
 31
0.0
  0
LINE
  5
D1F
330
D0C
100
AcDbEntity
  8
0
  6
Continuous
 62
     7
370
    -3
100
AcDbLine
 10
132.0706688861856
 20
88.11932524101322
 30
0.0
 11
132.0706688861856
 21
91.51932524101317
 31
0.0
  0
LINE
  5
D20
330
D0C
100
AcDbEntity
  8
0
  6
Continuous
 62
     7
370
    -3
100
AcDbLine
 10
130.9685558535952
 20
92.58516483516492
 30
0.0
 11
130.9685558535952
 21
91.81932524101316
 31
0.0
  0
LINE
  5
D21
330
D0C
100
AcDbEntity
  8
0
  6
Continuous
 62
     7
370
    -3
100
AcDbLine
 10
129.3685558535953
 20
92.58516483516492
 30
0.0
 11
129.3685558535953
 21
91.81932524101316
 31
0.0
  0
LINE
  5
D22
330
D0C
100
AcDbEntity
  8
0
  6
Continuous
 62
     7
370
    -3
100
AcDbLine
 10
129.1685558535953
 20
92.58516483516492
 30
0.0
 11
129.1685558535953
 21
91.81932524101316
 31
0.0
  0
LINE
  5
D23
330
D0C
100
AcDbEntity
  8
0
  6
Continuous
 62
     4
370
    -3
100
AcDbLine
 10
131.1685558535953
 20
92.58516483516492
 30
0.0
 11
131.1685558535953
 21
91.81932524101316
 31
0.0
  0
LINE
  5
D24
330
D0C
100
AcDbEntity
  8
0
  6
Continuous
 62
     7
370
    -3
100
AcDbLine
 10
130.1685558535952
 20
88.11932524101322
 30
0.0
 11
130.1685558535952
 21
91.51932524101317
 31
0.0
  0
LINE
  5
D25
330
D0C
100
AcDbEntity
  8
0
  6
CENTER
 62
     6
370
    -3
100
AcDbLine
 10
130.1685558535953
 20
93.08725320419501
 30
0.0
 11
130.1685558535953
 21
86.96090265094495
 31
0.0
  0
ENDBLK
  5
D26
330
D0C
100
AcDbEntity
  8
0
100
AcDbBlockEnd
  0
BLOCK
  5
D28
330
D27
100
AcDbEntity
  8
0
100
AcDbBlockBegin
  2
*D5
 70
     1
 10
0.0
 20
0.0
 30
0.0
  3
*D5
  1

  0
LINE
  5
D29
330
D27
100
AcDbEntity
  8
0
 62
     6
440
 16777216
370
    -2
100
AcDbLine
 10
178.5683649970271
 20
102.8851648351649
 30
0.0
 11
204.4945558535951
 21
102.8851648351649
 31
0.0
  0
LINE
  5
D2A
330
D27
100
AcDbEntity
  8
0
 62
     6
440
 16777216
370
    -2
100
AcDbLine
 10
178.5683649970271
 20
128.2851648351648
 30
0.0
 11
204.4945558535951
 21
128.2851648351647
 31
0.0
  0
LINE
  5
D2B
330
D27
100
AcDbEntity
  8
0
 62
     6
440
 16777216
370
    -2
100
AcDbLine
 10
203.4945558535951
 20
105.8851648351649
 30
0.0
 11
203.4945558535951
 21
125.2851648351647
 31
0.0
  0
INSERT
  5
D2C
330
D27
100
AcDbEntity
  8
0
 62
     6
440
 16777216
370
    -2
100
AcDbBlockReference
  2
EDTIP_ARROW_S
 10
203.4945558535951
 20
102.8851648351649
 30
0.0
 41
3.0
 42
3.0
 43
3.0
 50
270.0
  0
INSERT
  5
D2D
330
D27
100
AcDbEntity
  8
0
 62
     6
440
 16777216
370
    -2
100
AcDbBlockReference
  2
EDTIP_ARROW_E
 10
203.4945558535951
 20
128.2851648351647
 30
0.0
 41
3.0
 42
3.0
 43
3.0
 50
90.0
  0
MTEXT
  5
D2E
330
D27
100
AcDbEntity
  8
0
 62
     7
440
 16777216
370
    -3
100
AcDbMText
 10
200.7346126717769
 20
115.5851648351648
 30
0.0
 40
3.5
 41
0.0
 46
0.0
 71
     5
 72
     1
  1
1-32　UNF
  7
ED_VECTOR
 11
0.0000000000000001
 21
1.0
 31
0.0
 73
     1
 44
1.0
  0
POINT
  5
D2F
330
D27
100
AcDbEntity
  8
Defpoints
 62
     0
440
 16777216
100
AcDbPoint
 10
177.5683649970271
 20
102.8851648351649
 30
0.0
  0
POINT
  5
D30
330
D27
100
AcDbEntity
  8
Defpoints
 62
     0
440
 16777216
100
AcDbPoint
 10
177.5683649970271
 20
128.2851648351648
 30
0.0
  0
POINT
  5
D31
330
D27
100
AcDbEntity
  8
Defpoints
 62
     0
440
 16777216
100
AcDbPoint
 10
203.4945558535951
 20
128.2851648351647
 30
0.0
  0
ENDBLK
  5
D32
330
D27
100
AcDbEntity
  8
0
100
AcDbBlockEnd
  0
BLOCK
  5
D34
330
D33
100
AcDbEntity
  8
0
100
AcDbBlockBegin
  2
*D6
 70
     1
 10
0.0
 20
0.0
 30
0.0
  3
*D6
  1

  0
LINE
  5
D35
330
D33
100
AcDbEntity
  8
0
 62
     6
440
 16777216
370
    -2
100
AcDbLine
 10
106.4685558535952
 20
95.33516483516487
 30
0.0
 11
94.4685558535952
 21
95.33516483516493
 31
0.0
  0
LINE
  5
D36
330
D33
100
AcDbEntity
  8
0
 62
     6
440
 16777216
370
    -2
100
AcDbLine
 10
106.4685558535952
 20
135.8351648351648
 30
0.0
 11
94.46855585359523
 21
135.8351648351648
 31
0.0
  0
LINE
  5
D37
330
D33
100
AcDbEntity
  8
0
 62
     6
440
 16777216
370
    -2
100
AcDbLine
 10
95.46855585359523
 20
98.3351648351649
 30
0.0
 11
95.46855585359523
 21
132.8351648351648
 31
0.0
  0
INSERT
  5
D38
330
D33
100
AcDbEntity
  8
0
 62
     6
440
 16777216
370
    -2
100
AcDbBlockReference
  2
EDTIP_ARROW_S
 10
95.46855585359521
 20
95.33516483516493
 30
0.0
 41
3.0
 42
3.0
 43
3.0
 50
270.0
  0
INSERT
  5
D39
330
D33
100
AcDbEntity
  8
0
 62
     6
440
 16777216
370
    -2
100
AcDbBlockReference
  2
EDTIP_ARROW_E
 10
95.46855585359523
 20
135.8351648351648
 30
0.0
 41
3.0
 42
3.0
 43
3.0
 50
90.0
  0
MTEXT
  5
D3A
330
D33
100
AcDbEntity
  8
0
 62
     7
440
 16777216
370
    -3
100
AcDbMText
 10
92.70861267177702
 20
115.5851648351649
 30
0.0
 40
3.5
 41
0.0
 46
0.0
 71
     5
 72
     1
  1
M40.5　P=0.5
  7
ED_VECTOR
 11
0.0000000000000001
 21
1.0
 31
0.0
 73
     1
 44
1.0
  0
POINT
  5
D3B
330
D33
100
AcDbEntity
  8
Defpoints
 62
     0
440
 16777216
100
AcDbPoint
 10
107.4685558535952
 20
95.33516483516487
 30
0.0
  0
POINT
  5
D3C
330
D33
100
AcDbEntity
  8
Defpoints
 62
     0
440
 16777216
100
AcDbPoint
 10
107.4685558535952
 20
135.8351648351648
 30
0.0
  0
POINT
  5
D3D
330
D33
100
AcDbEntity
  8
Defpoints
 62
     0
440
 16777216
100
AcDbPoint
 10
95.46855585359523
 20
135.8351648351648
 30
0.0
  0
ENDBLK
  5
D3E
330
D33
100
AcDbEntity
  8
0
100
AcDbBlockEnd
  0
BLOCK
  5
D40
330
D3F
100
AcDbEntity
  8
0
100
AcDbBlockBegin
  2
*D7
 70
     1
 10
0.0
 20
0.0
 30
0.0
  3
*D7
  1

  0
LINE
  5
D41
330
D3F
100
AcDbEntity
  8
0
 62
     6
440
 16777216
370
    -2
100
AcDbLine
 10
106.9685558535952
 20
92.58516483516478
 30
0.0
 11
82.46855585359522
 21
92.58516483516478
 31
0.0
  0
LINE
  5
D42
330
D3F
100
AcDbEntity
  8
0
 62
     6
440
 16777216
370
    -2
100
AcDbLine
 10
106.9685558535952
 20
138.5851648351648
 30
0.0
 11
82.46855585359524
 21
138.5851648351648
 31
0.0
  0
LINE
  5
D43
330
D3F
100
AcDbEntity
  8
0
 62
     6
440
 16777216
370
    -2
100
AcDbLine
 10
83.46855585359522
 20
95.58516483516479
 30
0.0
 11
83.46855585359524
 21
135.5851648351648
 31
0.0
  0
INSERT
  5
D44
330
D3F
100
AcDbEntity
  8
0
 62
     6
440
 16777216
370
    -2
100
AcDbBlockReference
  2
EDTIP_ARROW_S
 10
83.46855585359522
 20
92.58516483516478
 30
0.0
 41
3.0
 42
3.0
 43
3.0
 50
270.0
  0
INSERT
  5
D45
330
D3F
100
AcDbEntity
  8
0
 62
     6
440
 16777216
370
    -2
100
AcDbBlockReference
  2
EDTIP_ARROW_E
 10
83.46855585359524
 20
138.5851648351648
 30
0.0
 41
3.0
 42
3.0
 43
3.0
 50
90.0
  0
MTEXT
  5
D46
330
D3F
100
AcDbEntity
  8
0
 62
     7
440
 16777216
370
    -3
100
AcDbMText
 10
80.19156721723156
 20
115.5851648351648
 30
0.0
 40
3.5
 41
0.0
 46
0.0
 71
     5
 72
     1
  1
φ46
  7
ED_VECTOR
 11
0.0000000000000001
 21
1.0
 31
0.0
 73
     1
 44
1.0
  0
POINT
  5
D47
330
D3F
100
AcDbEntity
  8
Defpoints
 62
     0
440
 16777216
100
AcDbPoint
 10
107.9685558535952
 20
92.58516483516478
 30
0.0
  0
POINT
  5
D48
330
D3F
100
AcDbEntity
  8
Defpoints
 62
     0
440
 16777216
100
AcDbPoint
 10
107.9685558535952
 20
138.5851648351648
 30
0.0
  0
POINT
  5
D49
330
D3F
100
AcDbEntity
  8
Defpoints
 62
     0
440
 16777216
100
AcDbPoint
 10
83.46855585359524
 20
138.5851648351648
 30
0.0
  0
ENDBLK
  5
D4A
330
D3F
100
AcDbEntity
  8
0
100
AcDbBlockEnd
  0
BLOCK
  5
D4C
330
D4B
100
AcDbEntity
  8
0
100
AcDbBlockBegin
  2
*D8
 70
     1
 10
0.0
 20
0.0
 30
0.0
  3
*D8
  1

  0
LINE
  5
D4D
330
D4B
100
AcDbEntity
  8
0
 62
     6
440
 16777216
370
    -2
100
AcDbLine
 10
107.4685558535952
 20
139.0851648351649
 30
0.0
 11
107.4685558535952
 21
152.5851648351649
 31
0.0
  0
LINE
  5
D4E
330
D4B
100
AcDbEntity
  8
0
 62
     6
440
 16777216
370
    -2
100
AcDbLine
 10
173.9685558535952
 20
131.3351648351648
 30
0.0
 11
173.9685558535952
 21
152.5851648351649
 31
0.0
  0
LINE
  5
D4F
330
D4B
100
AcDbEntity
  8
0
 62
     6
440
 16777216
370
    -2
100
AcDbLine
 10
110.4685558535952
 20
151.5851648351649
 30
0.0
 11
170.9685558535952
 21
151.5851648351649
 31
0.0
  0
INSERT
  5
D50
330
D4B
100
AcDbEntity
  8
0
 62
     6
440
 16777216
370
    -2
100
AcDbBlockReference
  2
EDTIP_ARROW_S
 10
107.4685558535952
 20
151.5851648351649
 30
0.0
 41
3.0
 42
3.0
 43
3.0
 50
180.0
  0
INSERT
  5
D51
330
D4B
100
AcDbEntity
  8
0
 62
     6
440
 16777216
370
    -2
100
AcDbBlockReference
  2
EDTIP_ARROW_E
 10
173.9685558535952
 20
151.5851648351649
 30
0.0
 41
3.0
 42
3.0
 43
3.0
  0
MTEXT
  5
D52
330
D4B
100
AcDbEntity
  8
0
 62
     7
440
 16777216
370
    -3
100
AcDbMText
 10
140.7185558535952
 20
154.3351648351649
 30
0.0
 40
3.5
 41
0.0
 46
0.0
 71
     5
 72
     1
  1
66.5
  7
ED_VECTOR
 73
     1
 44
1.0
  0
POINT
  5
D53
330
D4B
100
AcDbEntity
  8
Defpoints
 62
     0
440
 16777216
100
AcDbPoint
 10
107.4685558535952
 20
138.0851648351649
 30
0.0
  0
POINT
  5
D54
330
D4B
100
AcDbEntity
  8
Defpoints
 62
     0
440
 16777216
100
AcDbPoint
 10
173.9685558535952
 20
130.3351648351648
 30
0.0
  0
POINT
  5
D55
330
D4B
100
AcDbEntity
  8
Defpoints
 62
     0
440
 16777216
100
AcDbPoint
 10
173.9685558535952
 20
151.5851648351649
 30
0.0
  0
ENDBLK
  5
D56
330
D4B
100
AcDbEntity
  8
0
100
AcDbBlockEnd
  0
BLOCK
  5
D58
330
D57
100
AcDbEntity
  8
0
100
AcDbBlockBegin
  2
*D9
 70
     1
 10
0.0
 20
0.0
 30
0.0
  3
*D9
  1

  0
LINE
  5
D59
330
D57
100
AcDbEntity
  8
0
 62
     6
440
 16777216
370
    -2
100
AcDbLine
 10
173.9685558535952
 20
122.0851648351648
 30
0.0
 11
173.9685558535952
 21
152.5851648351649
 31
0.0
  0
LINE
  5
D5A
330
D57
100
AcDbEntity
  8
0
 62
     6
440
 16777216
370
    -2
100
AcDbLine
 10
191.4945558535952
 20
122.0851648351648
 30
0.0
 11
191.4945558535952
 21
152.5851648351649
 31
0.0
  0
LINE
  5
D5B
330
D57
100
AcDbEntity
  8
0
 62
     6
440
 16777216
370
    -2
100
AcDbLine
 10
176.9685558535952
 20
151.5851648351649
 30
0.0
 11
188.494555853595
 21
151.5851648351649
 31
0.0
  0
INSERT
  5
D5C
330
D57
100
AcDbEntity
  8
0
 62
     6
440
 16777216
370
    -2
100
AcDbBlockReference
  2
EDTIP_ARROW_S
 10
173.9685558535952
 20
151.5851648351649
 30
0.0
 41
3.0
 42
3.0
 43
3.0
 50
180.0
  0
INSERT
  5
D5D
330
D57
100
AcDbEntity
  8
0
 62
     6
440
 16777216
370
    -2
100
AcDbBlockReference
  2
EDTIP_ARROW_E
 10
191.4945558535952
 20
151.5851648351649
 30
0.0
 41
3.0
 42
3.0
 43
3.0
  0
MTEXT
  5
D5E
330
D57
100
AcDbEntity
  8
0
 62
     7
440
 16777216
370
    -3
100
AcDbMText
 10
182.7315558535952
 20
154.3351648351649
 30
0.0
 40
3.5
 41
0.0
 46
0.0
 71
     5
 72
     1
  1
17.526
  7
ED_VECTOR
 73
     1
 44
1.0
  0
POINT
  5
D5F
330
D57
100
AcDbEntity
  8
Defpoints
 62
     0
440
 16777216
100
AcDbPoint
 10
173.9685558535952
 20
121.0851648351648
 30
0.0
  0
POINT
  5
D60
330
D57
100
AcDbEntity
  8
Defpoints
 62
     0
440
 16777216
100
AcDbPoint
 10
191.4945558535952
 20
121.0851648351648
 30
0.0
  0
POINT
  5
D61
330
D57
100
AcDbEntity
  8
Defpoints
 62
     0
440
 16777216
100
AcDbPoint
 10
191.4945558535952
 20
151.5851648351649
 30
0.0
  0
ENDBLK
  5
D62
330
D57
100
AcDbEntity
  8
0
100
AcDbBlockEnd
  0
BLOCK
  5
D64
330
D63
100
AcDbEntity
  8
0
100
AcDbBlockBegin
  2
*D10
 70
     1
 10
0.0
 20
0.0
 30
0.0
  3
*D10
  1

  0
LINE
  5
D65
330
D63
100
AcDbEntity
  8
0
 62
     6
440
 16777216
370
    -2
100
AcDbLine
 10
137.7185558535953
 20
91.83516483516479
 30
0.0
 11
216.4945558535951
 21
91.83516483516475
 31
0.0
  0
LINE
  5
D66
330
D63
100
AcDbEntity
  8
0
 62
     6
440
 16777216
370
    -2
100
AcDbLine
 10
137.7185558535953
 20
139.3351648351649
 30
0.0
 11
216.4945558535951
 21
139.3351648351648
 31
0.0
  0
LINE
  5
D67
330
D63
100
AcDbEntity
  8
0
 62
     6
440
 16777216
370
    -2
100
AcDbLine
 10
215.4945558535951
 20
94.83516483516478
 30
0.0
 11
215.4945558535951
 21
136.3351648351648
 31
0.0
  0
INSERT
  5
D68
330
D63
100
AcDbEntity
  8
0
 62
     6
440
 16777216
370
    -2
100
AcDbBlockReference
  2
EDTIP_ARROW_S
 10
215.4945558535951
 20
91.83516483516475
 30
0.0
 41
3.0
 42
3.0
 43
3.0
 50
270.0
  0
INSERT
  5
D69
330
D63
100
AcDbEntity
  8
0
 62
     6
440
 16777216
370
    -2
100
AcDbBlockReference
  2
EDTIP_ARROW_E
 10
215.4945558535951
 20
139.3351648351648
 30
0.0
 41
3.0
 42
3.0
 43
3.0
 50
90.0
  0
MTEXT
  5
D6A
330
D63
100
AcDbEntity
  8
0
 62
     7
440
 16777216
370
    -3
100
AcDbMText
 10
212.2175672172315
 20
115.5851648351648
 30
0.0
 40
3.5
 41
0.0
 46
0.0
 71
     5
 72
     1
  1
φ47.5
  7
ED_VECTOR
 11
0.0000000000000001
 21
1.0
 31
0.0
 73
     1
 44
1.0
  0
POINT
  5
D6B
330
D63
100
AcDbEntity
  8
Defpoints
 62
     0
440
 16777216
100
AcDbPoint
 10
136.7185558535953
 20
91.83516483516479
 30
0.0
  0
POINT
  5
D6C
330
D63
100
AcDbEntity
  8
Defpoints
 62
     0
440
 16777216
100
AcDbPoint
 10
136.7185558535953
 20
139.3351648351649
 30
0.0
  0
POINT
  5
D6D
330
D63
100
AcDbEntity
  8
Defpoints
 62
     0
440
 16777216
100
AcDbPoint
 10
215.4945558535951
 20
139.3351648351648
 30
0.0
  0
ENDBLK
  5
D6E
330
D63
100
AcDbEntity
  8
0
100
AcDbBlockEnd
  0
BLOCK
  5
FE2
330
FE1
100
AcDbEntity
  8
0
100
AcDbBlockBegin
  2
*D11
 70
     1
 10
0.0
 20
0.0
 30
0.0
  3
*D11
  1

  0
LINE
  5
1029
330
FE1
100
AcDbEntity
  8
0
 62
     6
440
 16777216
370
    -2
100
AcDbLine
 10
180.5555962633118
 20
131.228382221499
 30
0.0
 11
206.4817871198798
 21
131.228382221499
 31
0.0
  0
LINE
  5
102A
330
FE1
100
AcDbEntity
  8
0
 62
     6
440
 16777216
370
    -2
100
AcDbLine
 10
180.5555962633118
 20
156.6283822214989
 30
0.0
 11
206.4817871198798
 21
156.6283822214989
 31
0.0
  0
LINE
  5
102B
330
FE1
100
AcDbEntity
  8
0
 62
     6
440
 16777216
370
    -2
100
AcDbLine
 10
205.4817871198798
 20
134.228382221499
 30
0.0
 11
205.4817871198798
 21
153.6283822214989
 31
0.0
  0
INSERT
  5
102C
330
FE1
100
AcDbEntity
  8
0
 62
     6
440
 16777216
370
    -2
100
AcDbBlockReference
  2
EDTIP_ARROW_S
 10
205.4817871198798
 20
131.228382221499
 30
0.0
 41
3.0
 42
3.0
 43
3.0
 50
270.0
  0
INSERT
  5
102D
330
FE1
100
AcDbEntity
  8
0
 62
     6
440
 16777216
370
    -2
100
AcDbBlockReference
  2
EDTIP_ARROW_E
 10
205.4817871198798
 20
156.6283822214989
 30
0.0
 41
3.0
 42
3.0
 43
3.0
 50
90.0
  0
MTEXT
  5
102E
330
FE1
100
AcDbEntity
  8
0
 62
     7
440
 16777216
370
    -3
100
AcDbMText
 10
202.7218439380616
 20
143.928382221499
 30
0.0
 40
3.5
 41
0.0
 46
0.0
 71
     5
 72
     1
  1
1-32　UNF
  7
ED_VECTOR
 11
0.0000000000000001
 21
1.0
 31
0.0
 73
     1
 44
1.0
  0
POINT
  5
102F
330
FE1
100
AcDbEntity
  8
Defpoints
 62
     0
440
 16777216
100
AcDbPoint
 10
179.5555962633118
 20
131.228382221499
 30
0.0
  0
POINT
  5
1030
330
FE1
100
AcDbEntity
  8
Defpoints
 62
     0
440
 16777216
100
AcDbPoint
 10
179.5555962633118
 20
156.6283822214989
 30
0.0
  0
POINT
  5
1031
330
FE1
100
AcDbEntity
  8
Defpoints
 62
     0
440
 16777216
100
AcDbPoint
 10
205.4817871198798
 20
156.6283822214989
 30
0.0
  0
ENDBLK
  5
FE3
330
FE1
100
AcDbEntity
  8
0
100
AcDbBlockEnd
  0
BLOCK
  5
FEE
330
FED
100
AcDbEntity
  8
0
100
AcDbBlockBegin
  2
*D12
 70
     1
 10
0.0
 20
0.0
 30
0.0
  3
*D12
  1

  0
LINE
  5
1032
330
FED
100
AcDbEntity
  8
0
 62
     6
440
 16777216
370
    -2
100
AcDbLine
 10
108.4557871198799
 20
123.678382221499
 30
0.0
 11
96.45578711987996
 21
123.678382221499
 31
0.0
  0
LINE
  5
1033
330
FED
100
AcDbEntity
  8
0
 62
     6
440
 16777216
370
    -2
100
AcDbLine
 10
108.4557871198799
 20
164.1783822214989
 30
0.0
 11
96.45578711987996
 21
164.1783822214989
 31
0.0
  0
LINE
  5
1034
330
FED
100
AcDbEntity
  8
0
 62
     6
440
 16777216
370
    -2
100
AcDbLine
 10
97.45578711987995
 20
126.678382221499
 30
0.0
 11
97.45578711987995
 21
161.1783822214989
 31
0.0
  0
INSERT
  5
1035
330
FED
100
AcDbEntity
  8
0
 62
     6
440
 16777216
370
    -2
100
AcDbBlockReference
  2
EDTIP_ARROW_S
 10
97.45578711987995
 20
123.678382221499
 30
0.0
 41
3.0
 42
3.0
 43
3.0
 50
270.0
  0
INSERT
  5
1036
330
FED
100
AcDbEntity
  8
0
 62
     6
440
 16777216
370
    -2
100
AcDbBlockReference
  2
EDTIP_ARROW_E
 10
97.45578711987995
 20
164.1783822214989
 30
0.0
 41
3.0
 42
3.0
 43
3.0
 50
90.0
  0
MTEXT
  5
1037
330
FED
100
AcDbEntity
  8
0
 62
     7
440
 16777216
370
    -3
100
AcDbMText
 10
94.69584393806178
 20
143.9283822214989
 30
0.0
 40
3.5
 41
0.0
 46
0.0
 71
     5
 72
     1
  1
M40.5　P=0.5
  7
ED_VECTOR
 11
0.0000000000000001
 21
1.0
 31
0.0
 73
     1
 44
1.0
  0
POINT
  5
1038
330
FED
100
AcDbEntity
  8
Defpoints
 62
     0
440
 16777216
100
AcDbPoint
 10
109.4557871198799
 20
123.678382221499
 30
0.0
  0
POINT
  5
1039
330
FED
100
AcDbEntity
  8
Defpoints
 62
     0
440
 16777216
100
AcDbPoint
 10
109.4557871198799
 20
164.1783822214989
 30
0.0
  0
POINT
  5
103A
330
FED
100
AcDbEntity
  8
Defpoints
 62
     0
440
 16777216
100
AcDbPoint
 10
97.45578711987995
 20
164.1783822214989
 30
0.0
  0
ENDBLK
  5
FEF
330
FED
100
AcDbEntity
  8
0
100
AcDbBlockEnd
  0
BLOCK
  5
FFA
330
FF9
100
AcDbEntity
  8
0
100
AcDbBlockBegin
  2
*D13
 70
     1
 10
0.0
 20
0.0
 30
0.0
  3
*D13
  1

  0
LINE
  5
103B
330
FF9
100
AcDbEntity
  8
0
 62
     6
440
 16777216
370
    -2
100
AcDbLine
 10
108.9557871198799
 20
120.9283822214989
 30
0.0
 11
84.45578711987996
 21
120.9283822214989
 31
0.0
  0
LINE
  5
103C
330
FF9
100
AcDbEntity
  8
0
 62
     6
440
 16777216
370
    -2
100
AcDbLine
 10
108.9557871198799
 20
166.9283822214989
 30
0.0
 11
84.45578711987996
 21
166.9283822214989
 31
0.0
  0
LINE
  5
103D
330
FF9
100
AcDbEntity
  8
0
 62
     6
440
 16777216
370
    -2
100
AcDbLine
 10
85.45578711987996
 20
123.9283822214989
 30
0.0
 11
85.45578711987998
 21
163.9283822214989
 31
0.0
  0
INSERT
  5
103E
330
FF9
100
AcDbEntity
  8
0
 62
     6
440
 16777216
370
    -2
100
AcDbBlockReference
  2
EDTIP_ARROW_S
 10
85.45578711987996
 20
120.9283822214989
 30
0.0
 41
3.0
 42
3.0
 43
3.0
 50
270.0
  0
INSERT
  5
103F
330
FF9
100
AcDbEntity
  8
0
 62
     6
440
 16777216
370
    -2
100
AcDbBlockReference
  2
EDTIP_ARROW_E
 10
85.45578711987998
 20
166.9283822214989
 30
0.0
 41
3.0
 42
3.0
 43
3.0
 50
90.0
  0
MTEXT
  5
1040
330
FF9
100
AcDbEntity
  8
0
 62
     7
440
 16777216
370
    -3
100
AcDbMText
 10
82.17879848351628
 20
143.9283822214989
 30
0.0
 40
3.5
 41
0.0
 46
0.0
 71
     5
 72
     1
  1
φ46
  7
ED_VECTOR
 11
0.0000000000000001
 21
1.0
 31
0.0
 73
     1
 44
1.0
  0
POINT
  5
1041
330
FF9
100
AcDbEntity
  8
Defpoints
 62
     0
440
 16777216
100
AcDbPoint
 10
109.9557871198799
 20
120.9283822214989
 30
0.0
  0
POINT
  5
1042
330
FF9
100
AcDbEntity
  8
Defpoints
 62
     0
440
 16777216
100
AcDbPoint
 10
109.9557871198799
 20
166.9283822214989
 30
0.0
  0
POINT
  5
1043
330
FF9
100
AcDbEntity
  8
Defpoints
 62
     0
440
 16777216
100
AcDbPoint
 10
85.45578711987998
 20
166.9283822214989
 30
0.0
  0
ENDBLK
  5
FFB
330
FF9
100
AcDbEntity
  8
0
100
AcDbBlockEnd
  0
BLOCK
  5
1006
330
1005
100
AcDbEntity
  8
0
100
AcDbBlockBegin
  2
*D14
 70
     1
 10
0.0
 20
0.0
 30
0.0
  3
*D14
  1

  0
LINE
  5
1044
330
1005
100
AcDbEntity
  8
0
 62
     6
440
 16777216
370
    -2
100
AcDbLine
 10
109.4557871198799
 20
167.428382221499
 30
0.0
 11
109.4557871198799
 21
180.928382221499
 31
0.0
  0
LINE
  5
1045
330
1005
100
AcDbEntity
  8
0
 62
     6
440
 16777216
370
    -2
100
AcDbLine
 10
175.9557871198799
 20
159.6783822214989
 30
0.0
 11
175.9557871198799
 21
180.928382221499
 31
0.0
  0
LINE
  5
1046
330
1005
100
AcDbEntity
  8
0
 62
     6
440
 16777216
370
    -2
100
AcDbLine
 10
112.4557871198799
 20
179.928382221499
 30
0.0
 11
172.9557871198799
 21
179.928382221499
 31
0.0
  0
INSERT
  5
1047
330
1005
100
AcDbEntity
  8
0
 62
     6
440
 16777216
370
    -2
100
AcDbBlockReference
  2
EDTIP_ARROW_S
 10
109.4557871198799
 20
179.928382221499
 30
0.0
 41
3.0
 42
3.0
 43
3.0
 50
180.0
  0
INSERT
  5
1048
330
1005
100
AcDbEntity
  8
0
 62
     6
440
 16777216
370
    -2
100
AcDbBlockReference
  2
EDTIP_ARROW_E
 10
175.9557871198799
 20
179.928382221499
 30
0.0
 41
3.0
 42
3.0
 43
3.0
  0
MTEXT
  5
1049
330
1005
100
AcDbEntity
  8
0
 62
     7
440
 16777216
370
    -3
100
AcDbMText
 10
142.7057871198799
 20
182.678382221499
 30
0.0
 40
3.5
 41
0.0
 46
0.0
 71
     5
 72
     1
  1
66.5
  7
ED_VECTOR
 73
     1
 44
1.0
  0
POINT
  5
104A
330
1005
100
AcDbEntity
  8
Defpoints
 62
     0
440
 16777216
100
AcDbPoint
 10
109.4557871198799
 20
166.428382221499
 30
0.0
  0
POINT
  5
104B
330
1005
100
AcDbEntity
  8
Defpoints
 62
     0
440
 16777216
100
AcDbPoint
 10
175.9557871198799
 20
158.6783822214989
 30
0.0
  0
POINT
  5
104C
330
1005
100
AcDbEntity
  8
Defpoints
 62
     0
440
 16777216
100
AcDbPoint
 10
175.9557871198799
 20
179.928382221499
 30
0.0
  0
ENDBLK
  5
1007
330
1005
100
AcDbEntity
  8
0
100
AcDbBlockEnd
  0
BLOCK
  5
1012
330
1011
100
AcDbEntity
  8
0
100
AcDbBlockBegin
  2
*D15
 70
     1
 10
0.0
 20
0.0
 30
0.0
  3
*D15
  1

  0
LINE
  5
104D
330
1011
100
AcDbEntity
  8
0
 62
     6
440
 16777216
370
    -2
100
AcDbLine
 10
175.9557871198799
 20
150.4283822214989
 30
0.0
 11
175.9557871198799
 21
180.928382221499
 31
0.0
  0
LINE
  5
104E
330
1011
100
AcDbEntity
  8
0
 62
     6
440
 16777216
370
    -2
100
AcDbLine
 10
193.4817871198799
 20
150.4283822214989
 30
0.0
 11
193.4817871198799
 21
180.928382221499
 31
0.0
  0
LINE
  5
104F
330
1011
100
AcDbEntity
  8
0
 62
     6
440
 16777216
370
    -2
100
AcDbLine
 10
178.9557871198799
 20
179.928382221499
 30
0.0
 11
190.4817871198799
 21
179.928382221499
 31
0.0
  0
INSERT
  5
1050
330
1011
100
AcDbEntity
  8
0
 62
     6
440
 16777216
370
    -2
100
AcDbBlockReference
  2
EDTIP_ARROW_S
 10
175.9557871198799
 20
179.928382221499
 30
0.0
 41
3.0
 42
3.0
 43
3.0
 50
180.0
  0
INSERT
  5
1051
330
1011
100
AcDbEntity
  8
0
 62
     6
440
 16777216
370
    -2
100
AcDbBlockReference
  2
EDTIP_ARROW_E
 10
193.4817871198799
 20
179.928382221499
 30
0.0
 41
3.0
 42
3.0
 43
3.0
  0
MTEXT
  5
1052
330
1011
100
AcDbEntity
  8
0
 62
     7
440
 16777216
370
    -3
100
AcDbMText
 10
184.7187871198799
 20
182.678382221499
 30
0.0
 40
3.5
 41
0.0
 46
0.0
 71
     5
 72
     1
  1
17.526
  7
ED_VECTOR
 73
     1
 44
1.0
  0
POINT
  5
1053
330
1011
100
AcDbEntity
  8
Defpoints
 62
     0
440
 16777216
100
AcDbPoint
 10
175.9557871198799
 20
149.4283822214989
 30
0.0
  0
POINT
  5
1054
330
1011
100
AcDbEntity
  8
Defpoints
 62
     0
440
 16777216
100
AcDbPoint
 10
193.4817871198799
 20
149.4283822214989
 30
0.0
  0
POINT
  5
1055
330
1011
100
AcDbEntity
  8
Defpoints
 62
     0
440
 16777216
100
AcDbPoint
 10
193.4817871198799
 20
179.928382221499
 30
0.0
  0
ENDBLK
  5
1013
330
1011
100
AcDbEntity
  8
0
100
AcDbBlockEnd
  0
BLOCK
  5
101E
330
101D
100
AcDbEntity
  8
0
100
AcDbBlockBegin
  2
*D16
 70
     1
 10
0.0
 20
0.0
 30
0.0
  3
*D16
  1

  0
LINE
  5
1056
330
101D
100
AcDbEntity
  8
0
 62
     6
440
 16777216
370
    -2
100
AcDbLine
 10
139.70578711988
 20
120.1783822214989
 30
0.0
 11
218.4817871198798
 21
120.1783822214989
 31
0.0
  0
LINE
  5
1057
330
101D
100
AcDbEntity
  8
0
 62
     6
440
 16777216
370
    -2
100
AcDbLine
 10
139.70578711988
 20
167.678382221499
 30
0.0
 11
218.4817871198798
 21
167.678382221499
 31
0.0
  0
LINE
  5
1058
330
101D
100
AcDbEntity
  8
0
 62
     6
440
 16777216
370
    -2
100
AcDbLine
 10
217.4817871198798
 20
123.1783822214989
 30
0.0
 11
217.4817871198798
 21
164.678382221499
 31
0.0
  0
INSERT
  5
1059
330
101D
100
AcDbEntity
  8
0
 62
     6
440
 16777216
370
    -2
100
AcDbBlockReference
  2
EDTIP_ARROW_S
 10
217.4817871198798
 20
120.1783822214989
 30
0.0
 41
3.0
 42
3.0
 43
3.0
 50
270.0
  0
INSERT
  5
105A
330
101D
100
AcDbEntity
  8
0
 62
     6
440
 16777216
370
    -2
100
AcDbBlockReference
  2
EDTIP_ARROW_E
 10
217.4817871198798
 20
167.678382221499
 30
0.0
 41
3.0
 42
3.0
 43
3.0
 50
90.0
  0
MTEXT
  5
105B
330
101D
100
AcDbEntity
  8
0
 62
     7
440
 16777216
370
    -3
100
AcDbMText
 10
214.2047984835162
 20
143.928382221499
 30
0.0
 40
3.5
 41
0.0
 46
0.0
 71
     5
 72
     1
  1
φ47.5
  7
ED_VECTOR
 11
0.0000000000000001
 21
1.0
 31
0.0
 73
     1
 44
1.0
  0
POINT
  5
105C
330
101D
100
AcDbEntity
  8
Defpoints
 62
     0
440
 16777216
100
AcDbPoint
 10
138.70578711988
 20
120.1783822214989
 30
0.0
  0
POINT
  5
105D
330
101D
100
AcDbEntity
  8
Defpoints
 62
     0
440
 16777216
100
AcDbPoint
 10
138.70578711988
 20
167.678382221499
 30
0.0
  0
POINT
  5
105E
330
101D
100
AcDbEntity
  8
Defpoints
 62
     0
440
 16777216
100
AcDbPoint
 10
217.4817871198798
 20
167.678382221499
 30
0.0
  0
ENDBLK
  5
101F
330
101D
100
AcDbEntity
  8
0
100
AcDbBlockEnd
  0
BLOCK
  5
1060
330
105F
100
AcDbEntity
  8
0
100
AcDbBlockBegin
  2
_DotSmall
 70
     0
 10
0.0
 20
0.0
 30
0.0
  3
_DotSmall
  1

  0
LWPOLYLINE
  5
1061
330
105F
100
AcDbEntity
  8
0
  6
ByBlock
 62
     0
100
AcDbPolyline
 90
        2
 70
     1
 43
0.5
 10
-0.0625
 20
0.0
 42
1.0
 10
0.0625
 20
0.0
 42
1.0
  0
ENDBLK
  5
1062
330
105F
100
AcDbEntity
  8
0
100
AcDbBlockEnd
  0
BLOCK
  5
1064
330
1063
100
AcDbEntity
  8
0
100
AcDbBlockBegin
  2
_Open30
 70
     0
 10
0.0
 20
0.0
 30
0.0
  3
_Open30
  1

  0
LINE
  5
1065
330
1063
100
AcDbEntity
  8
0
  6
ByBlock
 62
     0
370
    -2
100
AcDbLine
 10
-1.0
 20
0.26794919
 30
0.0
 11
0.0
 21
0.0
 31
0.0
  0
LINE
  5
1066
330
1063
100
AcDbEntity
  8
0
  6
ByBlock
 62
     0
370
    -2
100
AcDbLine
 10
0.0
 20
0.0
 30
0.0
 11
-1.0
 21
-0.26794919
 31
0.0
  0
LINE
  5
1067
330
1063
100
AcDbEntity
  8
0
  6
ByBlock
 62
     0
370
    -2
100
AcDbLine
 10
0.0
 20
0.0
 30
0.0
 11
-1.0
 21
0.0
 31
0.0
  0
ENDBLK
  5
1068
330
1063
100
AcDbEntity
  8
0
100
AcDbBlockEnd
  0
ENDSEC
  0
SECTION
  2
ENTITIES
  0
LINE
  5
224
330
1F
100
AcDbEntity
  8
0
100
AcDbLine
 10
0.0
 20
0.0
 30
0.0
 11
209.9999999999999
 21
0.0
 31
0.0
  0
LINE
  5
234
330
1F
100
AcDbEntity
  8
0
100
AcDbLine
 10
209.9999999999999
 20
297.0
 30
0.0
 11
-0.0000000000000568
 21
297.0
 31
0.0
  0
LINE
  5
237
330
1F
100
AcDbEntity
  8
0
100
AcDbLine
 10
-0.0000000000000568
 20
297.0
 30
0.0
 11
0.0
 21
0.0
 31
0.0
  0
LINE
  5
23A
330
1F
100
AcDbEntity
  8
0
100
AcDbLine
 10
209.9999999999999
 20
0.0
 30
0.0
 11
209.9999999999999
 21
297.0
 31
0.0
  0
VIEWPORT
  5
88F
102
{ACAD_XDICTIONARY
360
890
102
}
330
87F
100
AcDbEntity
 67
     1
  8
0
348
84D
100
AcDbViewport
 10
144.7270812988281
 20
100.8062472343445
 30
0.0
 40
369.4057822306859
 41
211.7182583373009
 68
     1
 69
     1
 12
144.7270812988281
 22
100.8062472343445
 13
0.0
 23
0.0
 14
10.0
 24
10.0
 15
10.0
 25
10.0
 16
0.0
 26
0.0
 36
1.0
 17
0.0
 27
0.0
 37
0.0
 42
50.0
 43
0.0
 44
0.0
 45
211.7182583373009
 50
0.0
 51
0.0
 72
 20000
 90
   557088
  1

281
     0
 71
     1
 74
     0
110
0.0
120
0.0
130
0.0
111
1.0
121
0.0
131
0.0
112
0.0
122
1.0
132
0.0
 79
     0
146
0.0
170
     0
 61
     5
348
84D
292
     1
282
     1
141
0.0
142
0.0
 63
   250
421
  3355443
  0
TEXT
  5
AAA
330
87F
100
AcDbEntity
 67
     1
  8
文字
100
AcDbText
 10
90.62131928778754
 20
41.82961195565513
 30
0.0
 40
5.0
  1
MODEL NUMBER  HF1214J-2
  7
寸法
 72
     1
 11
144.5260811925494
 21
46.82961195565513
 31
0.0
100
AcDbText
 73
     3
  0
LINE
  5
AAB
330
87F
100
AcDbEntity
 67
     1
  8
図枠
  6
Continuous
370
    -3
100
AcDbLine
 10
90.62131928778756
 20
40.8296119556552
 30
0.0
 11
199.7083938469874
 21
40.82961195565522
 31
0.0
  0
LINE
  5
1244
330
87F
100
AcDbEntity
 67
     1
  8
中心
  6
CENTER
370
    -3
100
AcDbLine
 10
188.741610505455
 20
100.8065053181105
 30
0.0
 11
100.712282918395
 21
100.8065053181105
 31
0.0
  0
LINE
  5
1245
330
87F
100
AcDbEntity
 67
     1
  8
0
  6
Continuous
370
    -3
100
AcDbLine
 10
133.540282918395
 20
74.00650531811044
 30
0.0
 11
137.940282918395
 21
74.00650531811044
 31
0.0
  0
LINE
  5
1246
330
87F
100
AcDbEntity
 67
     1
  8
0
  6
Continuous
370
    -3
100
AcDbLine
 10
138.2402829183949
 20
74.30650531811045
 30
0.0
 11
138.2402829183949
 21
78.70650531811043
 31
0.0
  0
LINE
  5
1247
330
87F
100
AcDbEntity
 67
     1
  8
0
  6
Continuous
370
    -3
100
AcDbLine
 10
133.2402829183949
 20
78.70650531811043
 30
0.0
 11
133.2402829183949
 21
74.30650531811045
 31
0.0
  0
LINE
  5
1248
330
87F
100
AcDbEntity
 67
     1
  8
0
  6
Continuous
370
    -3
100
AcDbLine
 10
134.7402829183949
 20
79.16654753130945
 30
0.0
 11
134.7402829183949
 21
79.00650531811044
 31
0.0
  0
LINE
  5
1249
330
87F
100
AcDbEntity
 67
     1
  8
0
  6
Continuous
370
    -3
100
AcDbLine
 10
137.940282918395
 20
79.00650531811044
 30
0.0
 11
133.540282918395
 21
79.00650531811044
 31
0.0
  0
LINE
  5
124A
330
87F
100
AcDbEntity
 67
     1
  8
0
  6
Continuous
370
    -3
100
AcDbLine
 10
138.2402829183949
 20
74.30650531811045
 30
0.0
 11
137.940282918395
 21
74.00650531811044
 31
0.0
  0
LINE
  5
124B
330
87F
100
AcDbEntity
 67
     1
  8
0
  6
Continuous
370
    -3
100
AcDbLine
 10
133.2402829183949
 20
74.30650531811045
 30
0.0
 11
133.540282918395
 21
74.00650531811044
 31
0.0
  0
LINE
  5
124C
330
87F
100
AcDbEntity
 67
     1
  8
0
  6
Continuous
370
    -3
100
AcDbLine
 10
133.540282918395
 20
79.00650531811044
 30
0.0
 11
133.2402829183949
 21
78.70650531811043
 31
0.0
  0
LINE
  5
124D
330
87F
100
AcDbEntity
 67
     1
  8
0
  6
Continuous
370
    -3
100
AcDbLine
 10
137.940282918395
 20
79.00650531811044
 30
0.0
 11
138.2402829183949
 21
78.70650531811043
 31
0.0
  0
LINE
  5
124E
330
87F
100
AcDbEntity
 67
     1
  8
0
  6
Continuous
370
    -3
100
AcDbLine
 10
133.2402829183949
 20
74.30650531811045
 30
0.0
 11
138.2402829183949
 21
74.30650531811045
 31
0.0
  0
LINE
  5
124F
330
87F
100
AcDbEntity
 67
     1
  8
0
  6
Continuous
370
    -3
100
AcDbLine
 10
136.3873305311512
 20
78.70650531811043
 30
0.0
 11
136.3873305311512
 21
74.30650531811045
 31
0.0
  0
LINE
  5
1250
330
87F
100
AcDbEntity
 67
     1
  8
0
  6
Continuous
370
    -3
100
AcDbLine
 10
136.9902829183949
 20
74.30650531811045
 30
0.0
 11
136.9902829183949
 21
78.70650531811043
 31
0.0
  0
LINE
  5
1251
330
87F
100
AcDbEntity
 67
     1
  8
0
  6
Continuous
370
    -3
100
AcDbLine
 10
137.5080498713613
 20
78.70650531811043
 30
0.0
 11
137.5080498713613
 21
74.30650531811045
 31
0.0
  0
LINE
  5
1252
330
87F
100
AcDbEntity
 67
     1
  8
0
  6
Continuous
370
    -3
100
AcDbLine
 10
137.9053464278561
 20
74.30650531811045
 30
0.0
 11
137.9053464278561
 21
78.70650531811043
 31
0.0
  0
LINE
  5
1253
330
87F
100
AcDbEntity
 67
     1
  8
0
  6
Continuous
370
    -3
100
AcDbLine
 10
138.1550974841177
 20
78.70650531811043
 30
0.0
 11
138.1550974841177
 21
74.30650531811045
 31
0.0
  0
LINE
  5
1254
330
87F
100
AcDbEntity
 67
     1
  8
0
  6
Continuous
370
    -3
100
AcDbLine
 10
133.2402829183949
 20
78.70650531811043
 30
0.0
 11
138.2402829183949
 21
78.70650531811043
 31
0.0
  0
LINE
  5
1255
330
87F
100
AcDbEntity
 67
     1
  8
0
  6
Continuous
370
    -3
100
AcDbLine
 10
135.0932353056387
 20
74.30650531811045
 30
0.0
 11
135.0932353056387
 21
78.70650531811043
 31
0.0
  0
LINE
  5
1256
330
87F
100
AcDbEntity
 67
     1
  8
0
  6
Continuous
370
    -3
100
AcDbLine
 10
134.4902829183949
 20
78.70650531811043
 30
0.0
 11
134.4902829183949
 21
74.30650531811045
 31
0.0
  0
LINE
  5
1257
330
87F
100
AcDbEntity
 67
     1
  8
0
  6
Continuous
370
    -3
100
AcDbLine
 10
133.9725159654286
 20
74.30650531811045
 30
0.0
 11
133.9725159654286
 21
78.70650531811043
 31
0.0
  0
LINE
  5
1258
330
87F
100
AcDbEntity
 67
     1
  8
0
  6
Continuous
370
    -3
100
AcDbLine
 10
133.5752194089338
 20
78.70650531811043
 30
0.0
 11
133.5752194089338
 21
74.30650531811045
 31
0.0
  0
LINE
  5
1259
330
87F
100
AcDbEntity
 67
     1
  8
0
  6
Continuous
370
    -3
100
AcDbLine
 10
133.3254683526723
 20
74.30650531811045
 30
0.0
 11
133.3254683526723
 21
78.70650531811043
 31
0.0
  0
LINE
  5
125A
330
87F
100
AcDbEntity
 67
     1
  8
中心
  6
CENTER
370
    -3
100
AcDbLine
 10
135.7402829183949
 20
73.15591297249136
 30
0.0
 11
135.7402829183949
 21
81.55650531811046
 31
0.0
  0
LINE
  5
125B
330
87F
100
AcDbEntity
 67
     1
  8
0
  6
Continuous
370
    -3
100
AcDbLine
 10
136.5402829183949
 20
79.00650531811044
 30
0.0
 11
136.5402829183949
 21
80.55650531811044
 31
0.0
  0
LINE
  5
125C
330
87F
100
AcDbEntity
 67
     1
  8
0
  6
Continuous
370
    -3
100
AcDbLine
 10
134.9402829183951
 20
80.55650531811044
 30
0.0
 11
134.9402829183951
 21
79.00650531811044
 31
0.0
  0
LINE
  5
125D
330
87F
100
AcDbEntity
 67
     1
  8
0
  6
Continuous
370
    -3
100
AcDbLine
 10
134.7402829183949
 20
79.16654753130945
 30
0.0
 11
134.7402829183949
 21
80.55650531811044
 31
0.0
  0
LINE
  5
125E
330
87F
100
AcDbEntity
 67
     1
  8
0
  6
Continuous
370
    -3
100
AcDbLine
 10
136.7402829183949
 20
79.00650531811044
 30
0.0
 11
136.7402829183949
 21
80.55650531811044
 31
0.0
  0
LINE
  5
125F
330
87F
100
AcDbEntity
 67
     1
  8
0
  6
Continuous
370
    -3
100
AcDbLine
 10
135.7402829183949
 20
74.30650531811045
 30
0.0
 11
135.7402829183949
 21
78.70650531811043
 31
0.0
  0
LINE
  5
1260
330
87F
100
AcDbEntity
 67
     1
  8
中心
  6
CENTER
370
    -3
100
AcDbLine
 10
159.7402829183949
 20
72.90591297249136
 30
0.0
 11
159.7402829183949
 21
81.60470711449667
 31
0.0
  0
LINE
  5
1261
330
87F
100
AcDbEntity
 67
     1
  8
0
  6
Continuous
370
    -3
100
AcDbLine
 10
158.7402829183949
 20
78.91654753130945
 30
0.0
 11
158.7402829183949
 21
80.55650531811044
 31
0.0
  0
LINE
  5
1262
330
87F
100
AcDbEntity
 67
     1
  8
0
  6
Continuous
370
    -3
100
AcDbLine
 10
160.7402829183949
 20
78.75650531811044
 30
0.0
 11
160.7402829183949
 21
80.55650531811044
 31
0.0
  0
LINE
  5
1263
330
87F
100
AcDbEntity
 67
     1
  8
0
  6
Continuous
370
    -3
100
AcDbLine
 10
160.5402829183949
 20
80.55650531811044
 30
0.0
 11
160.5402829183949
 21
78.75650531811044
 31
0.0
  0
LINE
  5
1264
330
87F
100
AcDbEntity
 67
     1
  8
0
  6
Continuous
370
    -3
100
AcDbLine
 10
158.940282918395
 20
78.75650531811044
 30
0.0
 11
158.940282918395
 21
80.55650531811044
 31
0.0
  0
LINE
  5
1265
330
87F
100
AcDbEntity
 67
     1
  8
0
  6
Continuous
370
    -3
100
AcDbLine
 10
157.3254683526724
 20
74.05650531811045
 30
0.0
 11
157.3254683526724
 21
78.45650531811043
 31
0.0
  0
LINE
  5
1266
330
87F
100
AcDbEntity
 67
     1
  8
0
  6
Continuous
370
    -3
100
AcDbLine
 10
157.5752194089338
 20
78.45650531811043
 30
0.0
 11
157.5752194089338
 21
74.05650531811045
 31
0.0
  0
LINE
  5
1267
330
87F
100
AcDbEntity
 67
     1
  8
0
  6
Continuous
370
    -3
100
AcDbLine
 10
157.9725159654286
 20
74.05650531811045
 30
0.0
 11
157.9725159654286
 21
78.45650531811043
 31
0.0
  0
LINE
  5
1268
330
87F
100
AcDbEntity
 67
     1
  8
0
  6
Continuous
370
    -3
100
AcDbLine
 10
158.4902829183949
 20
78.45650531811043
 30
0.0
 11
158.4902829183949
 21
74.05650531811045
 31
0.0
  0
LINE
  5
1269
330
87F
100
AcDbEntity
 67
     1
  8
0
  6
Continuous
370
    -3
100
AcDbLine
 10
159.0932353056388
 20
74.05650531811045
 30
0.0
 11
159.0932353056388
 21
78.45650531811043
 31
0.0
  0
LINE
  5
126A
330
87F
100
AcDbEntity
 67
     1
  8
0
  6
Continuous
370
    -3
100
AcDbLine
 10
162.1550974841176
 20
78.45650531811043
 30
0.0
 11
162.1550974841176
 21
74.05650531811045
 31
0.0
  0
LINE
  5
126B
330
87F
100
AcDbEntity
 67
     1
  8
0
  6
Continuous
370
    -3
100
AcDbLine
 10
161.905346427856
 20
74.05650531811045
 30
0.0
 11
161.905346427856
 21
78.45650531811043
 31
0.0
  0
LINE
  5
126C
330
87F
100
AcDbEntity
 67
     1
  8
0
  6
Continuous
370
    -3
100
AcDbLine
 10
161.5080498713613
 20
78.45650531811043
 30
0.0
 11
161.5080498713613
 21
74.05650531811045
 31
0.0
  0
LINE
  5
126D
330
87F
100
AcDbEntity
 67
     1
  8
0
  6
Continuous
370
    -3
100
AcDbLine
 10
160.9902829183949
 20
74.05650531811045
 30
0.0
 11
160.9902829183949
 21
78.45650531811043
 31
0.0
  0
LINE
  5
126E
330
87F
100
AcDbEntity
 67
     1
  8
0
  6
Continuous
370
    -3
100
AcDbLine
 10
160.3873305311511
 20
78.45650531811043
 30
0.0
 11
160.3873305311511
 21
74.05650531811045
 31
0.0
  0
LINE
  5
126F
330
87F
100
AcDbEntity
 67
     1
  8
0
  6
Continuous
370
    -3
100
AcDbLine
 10
157.240282918395
 20
78.45650531811043
 30
0.0
 11
162.2402829183949
 21
78.45650531811043
 31
0.0
  0
LINE
  5
1270
330
87F
100
AcDbEntity
 67
     1
  8
0
  6
Continuous
370
    -3
100
AcDbLine
 10
157.240282918395
 20
74.05650531811045
 30
0.0
 11
162.2402829183949
 21
74.05650531811045
 31
0.0
  0
LINE
  5
1271
330
87F
100
AcDbEntity
 67
     1
  8
0
  6
Continuous
370
    -3
100
AcDbLine
 10
161.940282918395
 20
78.75650531811044
 30
0.0
 11
162.2402829183949
 21
78.45650531811043
 31
0.0
  0
LINE
  5
1272
330
87F
100
AcDbEntity
 67
     1
  8
0
  6
Continuous
370
    -3
100
AcDbLine
 10
157.540282918395
 20
78.75650531811044
 30
0.0
 11
157.240282918395
 21
78.45650531811043
 31
0.0
  0
LINE
  5
1273
330
87F
100
AcDbEntity
 67
     1
  8
0
  6
Continuous
370
    -3
100
AcDbLine
 10
157.240282918395
 20
74.05650531811045
 30
0.0
 11
157.540282918395
 21
73.75650531811044
 31
0.0
  0
LINE
  5
1274
330
87F
100
AcDbEntity
 67
     1
  8
0
  6
Continuous
370
    -3
100
AcDbLine
 10
162.2402829183949
 20
74.05650531811045
 30
0.0
 11
161.940282918395
 21
73.75650531811044
 31
0.0
  0
LINE
  5
1275
330
87F
100
AcDbEntity
 67
     1
  8
0
  6
Continuous
370
    -3
100
AcDbLine
 10
161.940282918395
 20
78.75650531811044
 30
0.0
 11
157.540282918395
 21
78.75650531811044
 31
0.0
  0
LINE
  5
1276
330
87F
100
AcDbEntity
 67
     1
  8
0
  6
Continuous
370
    -3
100
AcDbLine
 10
158.7402829183949
 20
78.91654753130945
 30
0.0
 11
158.7402829183949
 21
78.75650531811044
 31
0.0
  0
LINE
  5
1277
330
87F
100
AcDbEntity
 67
     1
  8
0
  6
Continuous
370
    -3
100
AcDbLine
 10
157.240282918395
 20
78.45650531811043
 30
0.0
 11
157.240282918395
 21
74.05650531811045
 31
0.0
  0
LINE
  5
1278
330
87F
100
AcDbEntity
 67
     1
  8
0
  6
Continuous
370
    -3
100
AcDbLine
 10
162.2402829183949
 20
74.05650531811045
 30
0.0
 11
162.2402829183949
 21
78.45650531811043
 31
0.0
  0
LINE
  5
1279
330
87F
100
AcDbEntity
 67
     1
  8
0
  6
Continuous
370
    -3
100
AcDbLine
 10
157.540282918395
 20
73.75650531811044
 30
0.0
 11
161.940282918395
 21
73.75650531811044
 31
0.0
  0
LINE
  5
127A
330
87F
100
AcDbEntity
 67
     1
  8
0
  6
Continuous
370
    -3
100
AcDbLine
 10
159.7402829183949
 20
74.05650531811045
 30
0.0
 11
159.7402829183949
 21
78.45650531811043
 31
0.0
  0
LINE
  5
127B
330
87F
100
AcDbEntity
 67
     1
  8
0
  6
Continuous
370
    -3
100
AcDbLine
 10
162.5402829183949
 20
80.75650531811048
 30
0.0
 11
162.5402829183949
 21
120.8565053181104
 31
0.0
  0
LINE
  5
127C
330
87F
100
AcDbEntity
 67
     1
  8
0
  6
Continuous
370
    -3
100
AcDbLine
 10
162.5402829183949
 20
120.8565053181104
 30
0.0
 11
162.340282918395
 21
121.0565053181104
 31
0.0
  0
LINE
  5
127D
330
87F
100
AcDbEntity
 67
     1
  8
0
  6
Continuous
370
    -3
100
AcDbLine
 10
157.440282918395
 20
121.0565053181104
 30
0.0
 11
156.690282918395
 21
121.8065053181105
 31
0.0
  0
LINE
  5
127E
330
87F
100
AcDbEntity
 67
     1
  8
0
  6
Continuous
370
    -3
100
AcDbLine
 10
156.690282918395
 20
121.8065053181105
 30
0.0
 11
152.690282918395
 21
121.8065053181105
 31
0.0
  0
LINE
  5
127F
330
87F
100
AcDbEntity
 67
     1
  8
0
  6
Continuous
370
    -3
100
AcDbLine
 10
152.690282918395
 20
121.8065053181105
 30
0.0
 11
151.940282918395
 21
121.0565053181104
 31
0.0
  0
LINE
  5
1280
330
87F
100
AcDbEntity
 67
     1
  8
0
  6
Continuous
370
    -3
100
AcDbLine
 10
151.940282918395
 20
121.0565053181104
 30
0.0
 11
145.1402829183949
 21
121.0565053181104
 31
0.0
  0
LINE
  5
1281
330
87F
100
AcDbEntity
 67
     1
  8
0
  6
Continuous
370
    -3
100
AcDbLine
 10
145.1402829183949
 20
121.0565053181104
 30
0.0
 11
144.940282918395
 21
120.8565053181104
 31
0.0
  0
LINE
  5
1282
330
87F
100
AcDbEntity
 67
     1
  8
0
  6
Continuous
370
    -3
100
AcDbLine
 10
144.940282918395
 20
120.8565053181104
 30
0.0
 11
144.940282918395
 21
80.75650531811048
 31
0.0
  0
LINE
  5
1283
330
87F
100
AcDbEntity
 67
     1
  8
0
  6
Continuous
370
    -3
100
AcDbLine
 10
144.940282918395
 20
119.0565053181104
 30
0.0
 11
144.740282918395
 21
119.0565053181104
 31
0.0
  0
LINE
  5
1284
330
87F
100
AcDbEntity
 67
     1
  8
0
  6
Continuous
370
    -3
100
AcDbLine
 10
144.740282918395
 20
80.75650531811048
 30
0.0
 11
144.740282918395
 21
120.8565053181104
 31
0.0
  0
LINE
  5
1285
330
87F
100
AcDbEntity
 67
     1
  8
0
  6
Continuous
370
    -3
100
AcDbLine
 10
144.740282918395
 20
120.8565053181104
 30
0.0
 11
144.5402829183949
 21
121.0565053181104
 31
0.0
  0
LINE
  5
1286
330
87F
100
AcDbEntity
 67
     1
  8
0
  6
Continuous
370
    -3
100
AcDbLine
 10
144.5402829183949
 20
121.0565053181104
 30
0.0
 11
141.940282918395
 21
121.0565053181104
 31
0.0
  0
LINE
  5
1287
330
87F
100
AcDbEntity
 67
     1
  8
0
  6
Continuous
370
    -3
100
AcDbLine
 10
141.940282918395
 20
121.0565053181104
 30
0.0
 11
141.7402829183949
 21
120.8565053181104
 31
0.0
  0
LINE
  5
1288
330
87F
100
AcDbEntity
 67
     1
  8
0
  6
Continuous
370
    -3
100
AcDbLine
 10
141.7402829183949
 20
120.8565053181104
 30
0.0
 11
141.7402829183949
 21
80.75650531811048
 31
0.0
  0
LINE
  5
1289
330
87F
100
AcDbEntity
 67
     1
  8
0
  6
Continuous
370
    -3
100
AcDbLine
 10
141.7402829183949
 20
120.3065053181104
 30
0.0
 11
141.540282918395
 21
120.3065053181104
 31
0.0
  0
LINE
  5
128A
330
87F
100
AcDbEntity
 67
     1
  8
0
  6
Continuous
370
    -3
100
AcDbLine
 10
141.540282918395
 20
80.75650531811048
 30
0.0
 11
141.540282918395
 21
120.8565053181104
 31
0.0
  0
LINE
  5
128B
330
87F
100
AcDbEntity
 67
     1
  8
0
  6
Continuous
370
    -3
100
AcDbLine
 10
141.540282918395
 20
120.8565053181104
 30
0.0
 11
141.340282918395
 21
121.0565053181104
 31
0.0
  0
LINE
  5
128C
330
87F
100
AcDbEntity
 67
     1
  8
0
  6
Continuous
370
    -3
100
AcDbLine
 10
131.9402829183951
 20
121.0565053181104
 30
0.0
 11
131.7402829183949
 21
120.8565053181104
 31
0.0
  0
LINE
  5
128D
330
87F
100
AcDbEntity
 67
     1
  8
0
  6
Continuous
370
    -3
100
AcDbLine
 10
131.7402829183949
 20
119.9565053181105
 30
0.0
 11
131.540282918395
 21
119.9565053181105
 31
0.0
  0
LINE
  5
128E
330
87F
100
AcDbEntity
 67
     1
  8
0
  6
Continuous
370
    -3
100
AcDbLine
 10
131.540282918395
 20
120.8565053181104
 30
0.0
 11
131.3402829183951
 21
121.0565053181104
 31
0.0
  0
LINE
  5
128F
330
87F
100
AcDbEntity
 67
     1
  8
0
  6
Continuous
370
    -3
100
AcDbLine
 10
131.3402829183951
 20
121.0565053181104
 30
0.0
 11
126.4902829183949
 21
121.0565053181104
 31
0.0
  0
LINE
  5
1290
330
87F
100
AcDbEntity
 67
     1
  8
0
  6
Continuous
370
    -3
100
AcDbLine
 10
126.4902829183949
 20
121.0565053181104
 30
0.0
 11
125.7402829183949
 21
120.3065053181104
 31
0.0
  0
LINE
  5
1291
330
87F
100
AcDbEntity
 67
     1
  8
0
  6
Continuous
370
    -3
100
AcDbLine
 10
125.7402829183949
 20
120.3065053181104
 30
0.0
 11
117.2402829183949
 21
120.3065053181104
 31
0.0
  0
LINE
  5
1292
330
87F
100
AcDbEntity
 67
     1
  8
0
  6
Continuous
370
    -3
100
AcDbLine
 10
117.2402829183949
 20
120.3065053181104
 30
0.0
 11
116.7402829183949
 21
119.8065053181104
 31
0.0
  0
LINE
  5
1293
330
87F
100
AcDbEntity
 67
     1
  8
0
  6
Continuous
370
    -3
100
AcDbLine
 10
116.7402829183949
 20
119.8065053181104
 30
0.0
 11
116.2402829183949
 21
120.3065053181104
 31
0.0
  0
LINE
  5
1294
330
87F
100
AcDbEntity
 67
     1
  8
0
  6
Continuous
370
    -3
100
AcDbLine
 10
116.2402829183949
 20
120.3065053181104
 30
0.0
 11
110.912282918395
 21
120.3065053181104
 31
0.0
  0
LINE
  5
1295
330
87F
100
AcDbEntity
 67
     1
  8
0
  6
Continuous
370
    -3
100
AcDbLine
 10
110.912282918395
 20
120.3065053181104
 30
0.0
 11
110.712282918395
 21
120.1065053181104
 31
0.0
  0
LINE
  5
1296
330
87F
100
AcDbEntity
 67
     1
  8
0
  6
Continuous
370
    -3
100
AcDbLine
 10
110.712282918395
 20
120.1065053181104
 30
0.0
 11
110.712282918395
 21
81.5065053181105
 31
0.0
  0
LINE
  5
1297
330
87F
100
AcDbEntity
 67
     1
  8
0
  6
Continuous
370
    -3
100
AcDbLine
 10
162.340282918395
 20
121.0565053181104
 30
0.0
 11
162.340282918395
 21
80.55650531811052
 31
0.0
  0
LINE
  5
1298
330
87F
100
AcDbEntity
 67
     1
  8
0
  6
Continuous
370
    -3
100
AcDbLine
 10
157.440282918395
 20
121.0565053181104
 30
0.0
 11
157.440282918395
 21
80.55650531811052
 31
0.0
  0
LINE
  5
1299
330
87F
100
AcDbEntity
 67
     1
  8
0
  6
Continuous
370
    -3
100
AcDbLine
 10
156.690282918395
 20
121.8065053181105
 30
0.0
 11
156.690282918395
 21
121.3267554289737
 31
0.0
  0
LINE
  5
129A
330
87F
100
AcDbEntity
 67
     1
  8
0
  6
Continuous
370
    -3
100
AcDbLine
 10
152.690282918395
 20
121.8065053181105
 30
0.0
 11
152.690282918395
 21
121.3267554289737
 31
0.0
  0
LINE
  5
129B
330
87F
100
AcDbEntity
 67
     1
  8
0
  6
Continuous
370
    -3
100
AcDbLine
 10
151.940282918395
 20
121.0565053181104
 30
0.0
 11
151.940282918395
 21
80.55650531811052
 31
0.0
  0
LINE
  5
129C
330
87F
100
AcDbEntity
 67
     1
  8
0
  6
Continuous
370
    -3
100
AcDbLine
 10
145.1402829183949
 20
121.0565053181104
 30
0.0
 11
145.1402829183949
 21
80.55650531811052
 31
0.0
  0
LINE
  5
129D
330
87F
100
AcDbEntity
 67
     1
  8
0
  6
Continuous
370
    -3
100
AcDbLine
 10
144.5402829183949
 20
121.0565053181104
 30
0.0
 11
144.5402829183949
 21
80.55650531811044
 31
0.0
  0
LINE
  5
129E
330
87F
100
AcDbEntity
 67
     1
  8
0
  6
Continuous
370
    -3
100
AcDbLine
 10
141.940282918395
 20
121.0565053181104
 30
0.0
 11
141.940282918395
 21
80.55650531811044
 31
0.0
  0
LINE
  5
129F
330
87F
100
AcDbEntity
 67
     1
  8
0
  6
Continuous
370
    -3
100
AcDbLine
 10
141.340282918395
 20
121.0565053181104
 30
0.0
 11
141.340282918395
 21
80.55650531811052
 31
0.0
  0
LINE
  5
12A0
330
87F
100
AcDbEntity
 67
     1
  8
0
  6
Continuous
370
    -3
100
AcDbLine
 10
131.9402829183951
 20
121.0565053181104
 30
0.0
 11
131.9402829183951
 21
80.55650531811044
 31
0.0
  0
LINE
  5
12A1
330
87F
100
AcDbEntity
 67
     1
  8
0
  6
Continuous
370
    -3
100
AcDbLine
 10
131.7402829183949
 20
120.8565053181104
 30
0.0
 11
131.7402829183949
 21
80.75650531811048
 31
0.0
  0
LINE
  5
12A2
330
87F
100
AcDbEntity
 67
     1
  8
0
  6
Continuous
370
    -3
100
AcDbLine
 10
131.540282918395
 20
120.8565053181104
 30
0.0
 11
131.540282918395
 21
80.75650531811048
 31
0.0
  0
LINE
  5
12A3
330
87F
100
AcDbEntity
 67
     1
  8
0
  6
Continuous
370
    -3
100
AcDbLine
 10
131.3402829183951
 20
121.0565053181104
 30
0.0
 11
131.3402829183951
 21
80.55650531811052
 31
0.0
  0
LINE
  5
12A4
330
87F
100
AcDbEntity
 67
     1
  8
0
  6
Continuous
370
    -3
100
AcDbLine
 10
126.4902829183949
 20
121.0565053181104
 30
0.0
 11
126.4902829183949
 21
80.55650531811052
 31
0.0
  0
LINE
  5
12A5
330
87F
100
AcDbEntity
 67
     1
  8
0
  6
Continuous
370
    -3
100
AcDbLine
 10
125.7402829183949
 20
120.3065053181104
 30
0.0
 11
125.7402829183949
 21
81.30650531811047
 31
0.0
  0
LINE
  5
12A6
330
87F
100
AcDbEntity
 67
     1
  8
0
  6
Continuous
370
    -3
100
AcDbLine
 10
117.2402829183949
 20
120.3065053181104
 30
0.0
 11
117.2402829183949
 21
81.30650531811047
 31
0.0
  0
LINE
  5
12A7
330
87F
100
AcDbEntity
 67
     1
  8
0
  6
Continuous
370
    -3
100
AcDbLine
 10
116.7402829183949
 20
119.8065053181104
 30
0.0
 11
116.7402829183949
 21
81.80650531811044
 31
0.0
  0
LINE
  5
12A8
330
87F
100
AcDbEntity
 67
     1
  8
0
  6
Continuous
370
    -3
100
AcDbLine
 10
116.2402829183949
 20
120.3065053181104
 30
0.0
 11
116.2402829183949
 21
81.30650531811051
 31
0.0
  0
LINE
  5
12A9
330
87F
100
AcDbEntity
 67
     1
  8
0
  6
Continuous
370
    -3
100
AcDbLine
 10
110.912282918395
 20
120.3065053181104
 30
0.0
 11
110.912282918395
 21
81.30650531811051
 31
0.0
  0
LINE
  5
12AA
330
87F
100
AcDbEntity
 67
     1
  8
0
  6
Continuous
370
    -3
100
AcDbLine
 10
152.190282918395
 20
101.3065053181104
 30
0.0
 11
152.690282918395
 21
101.8065053181105
 31
0.0
  0
LINE
  5
12AB
330
87F
100
AcDbEntity
 67
     1
  8
0
  6
Continuous
370
    -3
100
AcDbLine
 10
152.690282918395
 20
101.8065053181105
 30
0.0
 11
156.690282918395
 21
101.8065053181105
 31
0.0
  0
LINE
  5
12AC
330
87F
100
AcDbEntity
 67
     1
  8
0
  6
Continuous
370
    -3
100
AcDbLine
 10
156.690282918395
 20
101.8065053181105
 30
0.0
 11
157.190282918395
 21
101.3065053181104
 31
0.0
  0
LINE
  5
12AD
330
87F
100
AcDbEntity
 67
     1
  8
0
  6
Continuous
370
    -3
100
AcDbLine
 10
157.190282918395
 20
101.3065053181104
 30
0.0
 11
157.190282918395
 21
100.3065053181104
 31
0.0
  0
LINE
  5
12AE
330
87F
100
AcDbEntity
 67
     1
  8
0
  6
Continuous
370
    -3
100
AcDbLine
 10
152.190282918395
 20
101.3065053181104
 30
0.0
 11
157.190282918395
 21
101.3065053181104
 31
0.0
  0
LINE
  5
12AF
330
87F
100
AcDbEntity
 67
     1
  8
0
  6
Continuous
370
    -3
100
AcDbLine
 10
152.690282918395
 20
107.201465235969
 30
0.0
 11
156.690282918395
 21
107.201465235969
 31
0.0
  0
LINE
  5
12B0
330
87F
100
AcDbEntity
 67
     1
  8
0
  6
Continuous
370
    -3
100
AcDbLine
 10
152.690282918395
 20
105.2696135833909
 30
0.0
 11
156.690282918395
 21
105.2696135833909
 31
0.0
  0
LINE
  5
12B1
330
87F
100
AcDbEntity
 67
     1
  8
0
  6
Continuous
370
    -3
100
AcDbLine
 10
156.690282918395
 20
105.2696135833909
 30
0.0
 11
156.690282918395
 21
101.8065053181105
 31
0.0
  0
LINE
  5
12B2
330
87F
100
AcDbEntity
 67
     1
  8
0
  6
Continuous
370
    -3
100
AcDbLine
 10
152.690282918395
 20
105.2696135833909
 30
0.0
 11
152.690282918395
 21
101.8065053181105
 31
0.0
  0
LINE
  5
12B3
330
87F
100
AcDbEntity
 67
     1
  8
0
  6
Continuous
370
    -3
100
AcDbLine
 10
156.690282918395
 20
105.2696135833909
 30
0.0
 11
157.190282918395
 21
105.6277544298823
 31
0.0
  0
LINE
  5
12B4
330
87F
100
AcDbEntity
 67
     1
  8
0
  6
Continuous
370
    -3
100
AcDbLine
 10
157.190282918395
 20
105.6277544298823
 30
0.0
 11
157.190282918395
 21
106.5936802561713
 31
0.0
  0
LINE
  5
12B5
330
87F
100
AcDbEntity
 67
     1
  8
0
  6
Continuous
370
    -3
100
AcDbLine
 10
157.190282918395
 20
106.5936802561713
 30
0.0
 11
156.690282918395
 21
107.201465235969
 31
0.0
  0
LINE
  5
12B6
330
87F
100
AcDbEntity
 67
     1
  8
0
  6
Continuous
370
    -3
100
AcDbLine
 10
152.690282918395
 20
107.201465235969
 30
0.0
 11
152.190282918395
 21
106.5936802561713
 31
0.0
  0
LINE
  5
12B7
330
87F
100
AcDbEntity
 67
     1
  8
0
  6
Continuous
370
    -3
100
AcDbLine
 10
152.190282918395
 20
106.5936802561713
 30
0.0
 11
152.190282918395
 21
105.6277544298823
 31
0.0
  0
LINE
  5
12B8
330
87F
100
AcDbEntity
 67
     1
  8
0
  6
Continuous
370
    -3
100
AcDbLine
 10
152.190282918395
 20
105.6277544298823
 30
0.0
 11
152.690282918395
 21
105.2696135833909
 31
0.0
  0
LINE
  5
12B9
330
87F
100
AcDbEntity
 67
     1
  8
0
  6
Continuous
370
    -3
100
AcDbLine
 10
152.190282918395
 20
106.5936802561713
 30
0.0
 11
157.190282918395
 21
106.5936802561713
 31
0.0
  0
LINE
  5
12BA
330
87F
100
AcDbEntity
 67
     1
  8
0
  6
Continuous
370
    -3
100
AcDbLine
 10
152.190282918395
 20
105.6277544298823
 30
0.0
 11
157.190282918395
 21
105.6277544298823
 31
0.0
  0
LINE
  5
12BB
330
87F
100
AcDbEntity
 67
     1
  8
0
  6
Continuous
370
    -3
100
AcDbLine
 10
152.190282918395
 20
110.6204433821778
 30
0.0
 11
157.190282918395
 21
110.6204433821778
 31
0.0
  0
LINE
  5
12BC
330
87F
100
AcDbEntity
 67
     1
  8
0
  6
Continuous
370
    -3
100
AcDbLine
 10
152.190282918395
 20
111.4864687859621
 30
0.0
 11
157.190282918395
 21
111.4864687859621
 31
0.0
  0
LINE
  5
12BD
330
87F
100
AcDbEntity
 67
     1
  8
0
  6
Continuous
370
    -3
100
AcDbLine
 10
152.690282918395
 20
112.1606192035965
 30
0.0
 11
156.690282918395
 21
112.1606192035965
 31
0.0
  0
LINE
  5
12BE
330
87F
100
AcDbEntity
 67
     1
  8
0
  6
Continuous
370
    -3
100
AcDbLine
 10
152.690282918395
 20
110.4285683960275
 30
0.0
 11
156.690282918395
 21
110.4285683960275
 31
0.0
  0
LINE
  5
12BF
330
87F
100
AcDbEntity
 67
     1
  8
0
  6
Continuous
370
    -3
100
AcDbLine
 10
156.690282918395
 20
110.4285683960275
 30
0.0
 11
156.690282918395
 21
107.201465235969
 31
0.0
  0
LINE
  5
12C0
330
87F
100
AcDbEntity
 67
     1
  8
0
  6
Continuous
370
    -3
100
AcDbLine
 10
152.690282918395
 20
110.4285683960275
 30
0.0
 11
152.690282918395
 21
107.201465235969
 31
0.0
  0
LINE
  5
12C1
330
87F
100
AcDbEntity
 67
     1
  8
0
  6
Continuous
370
    -3
100
AcDbLine
 10
156.690282918395
 20
110.4285683960275
 30
0.0
 11
157.190282918395
 21
110.6204433821778
 31
0.0
  0
LINE
  5
12C2
330
87F
100
AcDbEntity
 67
     1
  8
0
  6
Continuous
370
    -3
100
AcDbLine
 10
157.190282918395
 20
110.6204433821778
 30
0.0
 11
157.190282918395
 21
111.4864687859621
 31
0.0
  0
LINE
  5
12C3
330
87F
100
AcDbEntity
 67
     1
  8
0
  6
Continuous
370
    -3
100
AcDbLine
 10
157.190282918395
 20
111.4864687859621
 30
0.0
 11
156.690282918395
 21
112.1606192035965
 31
0.0
  0
LINE
  5
12C4
330
87F
100
AcDbEntity
 67
     1
  8
0
  6
Continuous
370
    -3
100
AcDbLine
 10
152.690282918395
 20
112.1606192035965
 30
0.0
 11
152.190282918395
 21
111.4864687859621
 31
0.0
  0
LINE
  5
12C5
330
87F
100
AcDbEntity
 67
     1
  8
0
  6
Continuous
370
    -3
100
AcDbLine
 10
152.190282918395
 20
111.4864687859621
 30
0.0
 11
152.190282918395
 21
110.6204433821778
 31
0.0
  0
LINE
  5
12C6
330
87F
100
AcDbEntity
 67
     1
  8
0
  6
Continuous
370
    -3
100
AcDbLine
 10
152.190282918395
 20
110.6204433821778
 30
0.0
 11
152.690282918395
 21
110.4285683960275
 31
0.0
  0
LINE
  5
12C7
330
87F
100
AcDbEntity
 67
     1
  8
0
  6
Continuous
370
    -3
100
AcDbLine
 10
152.190282918395
 20
115.6514354548931
 30
0.0
 11
157.190282918395
 21
115.6514354548931
 31
0.0
  0
LINE
  5
12C8
330
87F
100
AcDbEntity
 67
     1
  8
0
  6
Continuous
370
    -3
100
AcDbLine
 10
152.190282918395
 20
114.9443286737066
 30
0.0
 11
157.190282918395
 21
114.9443286737066
 31
0.0
  0
LINE
  5
12C9
330
87F
100
AcDbEntity
 67
     1
  8
0
  6
Continuous
370
    -3
100
AcDbLine
 10
152.690282918395
 20
116.3460090734883
 30
0.0
 11
156.690282918395
 21
116.3460090734883
 31
0.0
  0
LINE
  5
12CA
330
87F
100
AcDbEntity
 67
     1
  8
0
  6
Continuous
370
    -3
100
AcDbLine
 10
152.690282918395
 20
114.9317955111153
 30
0.0
 11
156.690282918395
 21
114.9317955111153
 31
0.0
  0
LINE
  5
12CB
330
87F
100
AcDbEntity
 67
     1
  8
0
  6
Continuous
370
    -3
100
AcDbLine
 10
156.690282918395
 20
114.9317955111153
 30
0.0
 11
156.690282918395
 21
112.1606192035965
 31
0.0
  0
LINE
  5
12CC
330
87F
100
AcDbEntity
 67
     1
  8
0
  6
Continuous
370
    -3
100
AcDbLine
 10
152.690282918395
 20
114.9317955111153
 30
0.0
 11
152.690282918395
 21
112.1606192035965
 31
0.0
  0
LINE
  5
12CD
330
87F
100
AcDbEntity
 67
     1
  8
0
  6
Continuous
370
    -3
100
AcDbLine
 10
152.690282918395
 20
114.9317955111153
 30
0.0
 11
152.190282918395
 21
114.9443286737066
 31
0.0
  0
LINE
  5
12CE
330
87F
100
AcDbEntity
 67
     1
  8
0
  6
Continuous
370
    -3
100
AcDbLine
 10
152.190282918395
 20
114.9443286737066
 30
0.0
 11
152.190282918395
 21
115.6514354548931
 31
0.0
  0
LINE
  5
12CF
330
87F
100
AcDbEntity
 67
     1
  8
0
  6
Continuous
370
    -3
100
AcDbLine
 10
152.190282918395
 20
115.6514354548931
 30
0.0
 11
152.690282918395
 21
116.3460090734883
 31
0.0
  0
LINE
  5
12D0
330
87F
100
AcDbEntity
 67
     1
  8
0
  6
Continuous
370
    -3
100
AcDbLine
 10
156.690282918395
 20
114.9317955111153
 30
0.0
 11
157.190282918395
 21
114.9443286737066
 31
0.0
  0
LINE
  5
12D1
330
87F
100
AcDbEntity
 67
     1
  8
0
  6
Continuous
370
    -3
100
AcDbLine
 10
157.190282918395
 20
114.9443286737066
 30
0.0
 11
157.190282918395
 21
115.6514354548931
 31
0.0
  0
LINE
  5
12D2
330
87F
100
AcDbEntity
 67
     1
  8
0
  6
Continuous
370
    -3
100
AcDbLine
 10
157.190282918395
 20
115.6514354548931
 30
0.0
 11
156.690282918395
 21
116.3460090734883
 31
0.0
  0
LINE
  5
12D3
330
87F
100
AcDbEntity
 67
     1
  8
0
  6
Continuous
370
    -3
100
AcDbLine
 10
152.190282918395
 20
118.8047446674093
 30
0.0
 11
157.190282918395
 21
118.8047446674093
 31
0.0
  0
LINE
  5
12D4
330
87F
100
AcDbEntity
 67
     1
  8
0
  6
Continuous
370
    -3
100
AcDbLine
 10
152.690282918395
 20
118.4724074426955
 30
0.0
 11
156.690282918395
 21
118.4724074426955
 31
0.0
  0
LINE
  5
12D5
330
87F
100
AcDbEntity
 67
     1
  8
0
  6
Continuous
370
    -3
100
AcDbLine
 10
156.690282918395
 20
118.4724074426955
 30
0.0
 11
156.690282918395
 21
116.3460090734883
 31
0.0
  0
LINE
  5
12D6
330
87F
100
AcDbEntity
 67
     1
  8
0
  6
Continuous
370
    -3
100
AcDbLine
 10
152.690282918395
 20
118.4724074426955
 30
0.0
 11
152.690282918395
 21
116.3460090734883
 31
0.0
  0
LINE
  5
12D7
330
87F
100
AcDbEntity
 67
     1
  8
0
  6
Continuous
370
    -3
100
AcDbLine
 10
152.690282918395
 20
119.4724074426955
 30
0.0
 11
156.690282918395
 21
119.4724074426955
 31
0.0
  0
LINE
  5
12D8
330
87F
100
AcDbEntity
 67
     1
  8
0
  6
Continuous
370
    -3
100
AcDbLine
 10
156.690282918395
 20
119.4724074426955
 30
0.0
 11
157.190282918395
 21
118.8047446674093
 31
0.0
  0
LINE
  5
12D9
330
87F
100
AcDbEntity
 67
     1
  8
0
  6
Continuous
370
    -3
100
AcDbLine
 10
157.190282918395
 20
118.8047446674093
 30
0.0
 11
157.190282918395
 21
118.3047446674093
 31
0.0
  0
LINE
  5
12DA
330
87F
100
AcDbEntity
 67
     1
  8
0
  6
Continuous
370
    -3
100
AcDbLine
 10
157.190282918395
 20
118.3047446674093
 30
0.0
 11
156.690282918395
 21
118.4724074426955
 31
0.0
  0
LINE
  5
12DB
330
87F
100
AcDbEntity
 67
     1
  8
0
  6
Continuous
370
    -3
100
AcDbLine
 10
152.690282918395
 20
119.4724074426955
 30
0.0
 11
152.190282918395
 21
118.8047446674093
 31
0.0
  0
LINE
  5
12DC
330
87F
100
AcDbEntity
 67
     1
  8
0
  6
Continuous
370
    -3
100
AcDbLine
 10
152.190282918395
 20
118.8047446674093
 30
0.0
 11
152.190282918395
 21
118.3047446674093
 31
0.0
  0
LINE
  5
12DD
330
87F
100
AcDbEntity
 67
     1
  8
0
  6
Continuous
370
    -3
100
AcDbLine
 10
152.190282918395
 20
118.3047446674093
 30
0.0
 11
152.690282918395
 21
118.4724074426955
 31
0.0
  0
LINE
  5
12DE
330
87F
100
AcDbEntity
 67
     1
  8
0
  6
Continuous
370
    -3
100
AcDbLine
 10
152.690282918395
 20
120.8091173387688
 30
0.0
 11
152.5749348705281
 21
120.7315036117675
 31
0.0
  0
LINE
  5
12DF
330
87F
100
AcDbEntity
 67
     1
  8
0
  6
Continuous
370
    -3
100
AcDbLine
 10
152.690282918395
 20
120.8091173387688
 30
0.0
 11
152.690282918395
 21
119.4724074426955
 31
0.0
  0
LINE
  5
12E0
330
87F
100
AcDbEntity
 67
     1
  8
0
  6
Continuous
370
    -3
100
AcDbLine
 10
152.190282918395
 20
120.472684566665
 30
0.0
 11
152.190282918395
 21
120.7315036117675
 31
0.0
  0
LINE
  5
12E1
330
87F
100
AcDbEntity
 67
     1
  8
0
  6
Continuous
370
    -3
100
AcDbLine
 10
152.190282918395
 20
120.7315036117675
 30
0.0
 11
152.690282918395
 21
121.3267554289737
 31
0.0
  0
LINE
  5
12E2
330
87F
100
AcDbEntity
 67
     1
  8
0
  6
Continuous
370
    -3
100
AcDbLine
 10
152.190282918395
 20
120.7315036117675
 30
0.0
 11
152.5749348705281
 21
120.7315036117675
 31
0.0
  0
LINE
  5
12E3
330
87F
100
AcDbEntity
 67
     1
  8
0
  6
Continuous
370
    -3
100
AcDbLine
 10
152.5749348705281
 20
120.7315036117675
 30
0.0
 11
152.190282918395
 21
120.472684566665
 31
0.0
  0
LINE
  5
12E4
330
87F
100
AcDbEntity
 67
     1
  8
0
  6
Continuous
370
    -3
100
AcDbLine
 10
156.690282918395
 20
121.3267554289737
 30
0.0
 11
157.190282918395
 21
120.7315036117675
 31
0.0
  0
LINE
  5
12E5
330
87F
100
AcDbEntity
 67
     1
  8
0
  6
Continuous
370
    -3
100
AcDbLine
 10
157.190282918395
 20
120.472684566665
 30
0.0
 11
156.8056309662617
 21
120.7315036117675
 31
0.0
  0
LINE
  5
12E6
330
87F
100
AcDbEntity
 67
     1
  8
0
  6
Continuous
370
    -3
100
AcDbLine
 10
156.690282918395
 20
120.8091173387688
 30
0.0
 11
156.690282918395
 21
119.4724074426955
 31
0.0
  0
LINE
  5
12E7
330
87F
100
AcDbEntity
 67
     1
  8
0
  6
Continuous
370
    -3
100
AcDbLine
 10
157.190282918395
 20
120.7315036117675
 30
0.0
 11
157.190282918395
 21
120.472684566665
 31
0.0
  0
LINE
  5
12E8
330
87F
100
AcDbEntity
 67
     1
  8
0
  6
Continuous
370
    -3
100
AcDbLine
 10
156.8056309662617
 20
120.7315036117675
 30
0.0
 11
157.190282918395
 21
120.7315036117675
 31
0.0
  0
LINE
  5
12E9
330
87F
100
AcDbEntity
 67
     1
  8
0
  6
Continuous
370
    -3
100
AcDbLine
 10
156.8056309662617
 20
120.7315036117675
 30
0.0
 11
156.690282918395
 21
120.8091173387688
 31
0.0
  0
LINE
  5
12EA
330
87F
100
AcDbEntity
 67
     1
  8
0
  6
Continuous
370
    -3
100
AcDbLine
 10
152.690282918395
 20
121.3267554289737
 30
0.0
 11
156.690282918395
 21
121.3267554289737
 31
0.0
  0
LINE
  5
12EB
330
87F
100
AcDbEntity
 67
     1
  8
0
  6
Continuous
370
    -3
100
AcDbLine
 10
152.690282918395
 20
120.8091173387688
 30
0.0
 11
156.690282918395
 21
120.8091173387688
 31
0.0
  0
LINE
  5
12EC
330
87F
100
AcDbEntity
 67
     1
  8
0
  6
Continuous
370
    -3
100
AcDbLine
 10
156.690282918395
 20
80.80389329745225
 30
0.0
 11
152.690282918395
 21
80.80389329745225
 31
0.0
  0
LINE
  5
12ED
330
87F
100
AcDbEntity
 67
     1
  8
0
  6
Continuous
370
    -3
100
AcDbLine
 10
156.690282918395
 20
80.28625520724714
 30
0.0
 11
152.690282918395
 21
80.28625520724714
 31
0.0
  0
LINE
  5
12EE
330
87F
100
AcDbEntity
 67
     1
  8
0
  6
Continuous
370
    -3
100
AcDbLine
 10
156.690282918395
 20
80.80389329745225
 30
0.0
 11
156.8056309662617
 21
80.88150702445339
 31
0.0
  0
LINE
  5
12EF
330
87F
100
AcDbEntity
 67
     1
  8
0
  6
Continuous
370
    -3
100
AcDbLine
 10
157.190282918395
 20
80.88150702445339
 30
0.0
 11
156.8056309662617
 21
80.88150702445339
 31
0.0
  0
LINE
  5
12F0
330
87F
100
AcDbEntity
 67
     1
  8
0
  6
Continuous
370
    -3
100
AcDbLine
 10
157.190282918395
 20
81.14032606955595
 30
0.0
 11
157.190282918395
 21
80.88150702445339
 31
0.0
  0
LINE
  5
12F1
330
87F
100
AcDbEntity
 67
     1
  8
0
  6
Continuous
370
    -3
100
AcDbLine
 10
156.690282918395
 20
82.14060319352558
 30
0.0
 11
156.690282918395
 21
80.80389329745225
 31
0.0
  0
LINE
  5
12F2
330
87F
100
AcDbEntity
 67
     1
  8
0
  6
Continuous
370
    -3
100
AcDbLine
 10
156.8056309662617
 20
80.88150702445339
 30
0.0
 11
157.190282918395
 21
81.14032606955595
 31
0.0
  0
LINE
  5
12F3
330
87F
100
AcDbEntity
 67
     1
  8
0
  6
Continuous
370
    -3
100
AcDbLine
 10
157.190282918395
 20
80.88150702445339
 30
0.0
 11
156.690282918395
 21
80.28625520724714
 31
0.0
  0
LINE
  5
12F4
330
87F
100
AcDbEntity
 67
     1
  8
0
  6
Continuous
370
    -3
100
AcDbLine
 10
152.190282918395
 20
81.14032606955595
 30
0.0
 11
152.5749348705281
 21
80.88150702445339
 31
0.0
  0
LINE
  5
12F5
330
87F
100
AcDbEntity
 67
     1
  8
0
  6
Continuous
370
    -3
100
AcDbLine
 10
152.5749348705281
 20
80.88150702445339
 30
0.0
 11
152.190282918395
 21
80.88150702445339
 31
0.0
  0
LINE
  5
12F6
330
87F
100
AcDbEntity
 67
     1
  8
0
  6
Continuous
370
    -3
100
AcDbLine
 10
152.690282918395
 20
80.28625520724714
 30
0.0
 11
152.190282918395
 21
80.88150702445339
 31
0.0
  0
LINE
  5
12F7
330
87F
100
AcDbEntity
 67
     1
  8
0
  6
Continuous
370
    -3
100
AcDbLine
 10
152.190282918395
 20
80.88150702445339
 30
0.0
 11
152.190282918395
 21
81.14032606955595
 31
0.0
  0
LINE
  5
12F8
330
87F
100
AcDbEntity
 67
     1
  8
0
  6
Continuous
370
    -3
100
AcDbLine
 10
152.690282918395
 20
82.14060319352558
 30
0.0
 11
152.690282918395
 21
80.80389329745225
 31
0.0
  0
LINE
  5
12F9
330
87F
100
AcDbEntity
 67
     1
  8
0
  6
Continuous
370
    -3
100
AcDbLine
 10
152.5749348705281
 20
80.88150702445339
 30
0.0
 11
152.690282918395
 21
80.80389329745225
 31
0.0
  0
LINE
  5
12FA
330
87F
100
AcDbEntity
 67
     1
  8
0
  6
Continuous
370
    -3
100
AcDbLine
 10
152.690282918395
 20
83.14060319352558
 30
0.0
 11
152.190282918395
 21
83.30826596881165
 31
0.0
  0
LINE
  5
12FB
330
87F
100
AcDbEntity
 67
     1
  8
0
  6
Continuous
370
    -3
100
AcDbLine
 10
152.190282918395
 20
83.30826596881165
 30
0.0
 11
152.190282918395
 21
82.80826596881167
 31
0.0
  0
LINE
  5
12FC
330
87F
100
AcDbEntity
 67
     1
  8
0
  6
Continuous
370
    -3
100
AcDbLine
 10
152.190282918395
 20
82.80826596881167
 30
0.0
 11
152.690282918395
 21
82.14060319352558
 31
0.0
  0
LINE
  5
12FD
330
87F
100
AcDbEntity
 67
     1
  8
0
  6
Continuous
370
    -3
100
AcDbLine
 10
156.690282918395
 20
83.14060319352558
 30
0.0
 11
157.190282918395
 21
83.30826596881165
 31
0.0
  0
LINE
  5
12FE
330
87F
100
AcDbEntity
 67
     1
  8
0
  6
Continuous
370
    -3
100
AcDbLine
 10
157.190282918395
 20
83.30826596881165
 30
0.0
 11
157.190282918395
 21
82.80826596881167
 31
0.0
  0
LINE
  5
12FF
330
87F
100
AcDbEntity
 67
     1
  8
0
  6
Continuous
370
    -3
100
AcDbLine
 10
157.190282918395
 20
82.80826596881167
 30
0.0
 11
156.690282918395
 21
82.14060319352558
 31
0.0
  0
LINE
  5
1300
330
87F
100
AcDbEntity
 67
     1
  8
0
  6
Continuous
370
    -3
100
AcDbLine
 10
156.690282918395
 20
82.14060319352558
 30
0.0
 11
152.690282918395
 21
82.14060319352558
 31
0.0
  0
LINE
  5
1301
330
87F
100
AcDbEntity
 67
     1
  8
0
  6
Continuous
370
    -3
100
AcDbLine
 10
152.690282918395
 20
85.26700156273269
 30
0.0
 11
152.690282918395
 21
83.14060319352558
 31
0.0
  0
LINE
  5
1302
330
87F
100
AcDbEntity
 67
     1
  8
0
  6
Continuous
370
    -3
100
AcDbLine
 10
156.690282918395
 20
85.26700156273269
 30
0.0
 11
156.690282918395
 21
83.14060319352558
 31
0.0
  0
LINE
  5
1303
330
87F
100
AcDbEntity
 67
     1
  8
0
  6
Continuous
370
    -3
100
AcDbLine
 10
156.690282918395
 20
83.14060319352558
 30
0.0
 11
152.690282918395
 21
83.14060319352558
 31
0.0
  0
LINE
  5
1304
330
87F
100
AcDbEntity
 67
     1
  8
0
  6
Continuous
370
    -3
100
AcDbLine
 10
157.190282918395
 20
82.80826596881167
 30
0.0
 11
152.190282918395
 21
82.80826596881167
 31
0.0
  0
LINE
  5
1305
330
87F
100
AcDbEntity
 67
     1
  8
0
  6
Continuous
370
    -3
100
AcDbLine
 10
156.690282918395
 20
85.26700156273269
 30
0.0
 11
157.190282918395
 21
85.9615751813278
 31
0.0
  0
LINE
  5
1306
330
87F
100
AcDbEntity
 67
     1
  8
0
  6
Continuous
370
    -3
100
AcDbLine
 10
157.190282918395
 20
85.9615751813278
 30
0.0
 11
157.190282918395
 21
86.66868196251439
 31
0.0
  0
LINE
  5
1307
330
87F
100
AcDbEntity
 67
     1
  8
0
  6
Continuous
370
    -3
100
AcDbLine
 10
157.190282918395
 20
86.66868196251439
 30
0.0
 11
156.690282918395
 21
86.68121512510564
 31
0.0
  0
LINE
  5
1308
330
87F
100
AcDbEntity
 67
     1
  8
0
  6
Continuous
370
    -3
100
AcDbLine
 10
152.690282918395
 20
85.26700156273269
 30
0.0
 11
152.190282918395
 21
85.9615751813278
 31
0.0
  0
LINE
  5
1309
330
87F
100
AcDbEntity
 67
     1
  8
0
  6
Continuous
370
    -3
100
AcDbLine
 10
152.190282918395
 20
85.9615751813278
 30
0.0
 11
152.190282918395
 21
86.66868196251439
 31
0.0
  0
LINE
  5
130A
330
87F
100
AcDbEntity
 67
     1
  8
0
  6
Continuous
370
    -3
100
AcDbLine
 10
152.190282918395
 20
86.66868196251439
 30
0.0
 11
152.690282918395
 21
86.68121512510564
 31
0.0
  0
LINE
  5
130B
330
87F
100
AcDbEntity
 67
     1
  8
0
  6
Continuous
370
    -3
100
AcDbLine
 10
152.690282918395
 20
89.45239143262449
 30
0.0
 11
152.690282918395
 21
86.68121512510564
 31
0.0
  0
LINE
  5
130C
330
87F
100
AcDbEntity
 67
     1
  8
0
  6
Continuous
370
    -3
100
AcDbLine
 10
156.690282918395
 20
89.45239143262449
 30
0.0
 11
156.690282918395
 21
86.68121512510564
 31
0.0
  0
LINE
  5
130D
330
87F
100
AcDbEntity
 67
     1
  8
0
  6
Continuous
370
    -3
100
AcDbLine
 10
156.690282918395
 20
86.68121512510564
 30
0.0
 11
152.690282918395
 21
86.68121512510564
 31
0.0
  0
LINE
  5
130E
330
87F
100
AcDbEntity
 67
     1
  8
0
  6
Continuous
370
    -3
100
AcDbLine
 10
156.690282918395
 20
85.26700156273269
 30
0.0
 11
152.690282918395
 21
85.26700156273269
 31
0.0
  0
LINE
  5
130F
330
87F
100
AcDbEntity
 67
     1
  8
0
  6
Continuous
370
    -3
100
AcDbLine
 10
157.190282918395
 20
86.66868196251439
 30
0.0
 11
152.190282918395
 21
86.66868196251439
 31
0.0
  0
LINE
  5
1310
330
87F
100
AcDbEntity
 67
     1
  8
0
  6
Continuous
370
    -3
100
AcDbLine
 10
157.190282918395
 20
85.9615751813278
 30
0.0
 11
152.190282918395
 21
85.9615751813278
 31
0.0
  0
LINE
  5
1311
330
87F
100
AcDbEntity
 67
     1
  8
0
  6
Continuous
370
    -3
100
AcDbLine
 10
152.690282918395
 20
91.18444224019336
 30
0.0
 11
152.190282918395
 21
90.99256725404307
 31
0.0
  0
LINE
  5
1312
330
87F
100
AcDbEntity
 67
     1
  8
0
  6
Continuous
370
    -3
100
AcDbLine
 10
152.190282918395
 20
90.99256725404307
 30
0.0
 11
152.190282918395
 21
90.12654185025857
 31
0.0
  0
LINE
  5
1313
330
87F
100
AcDbEntity
 67
     1
  8
0
  6
Continuous
370
    -3
100
AcDbLine
 10
152.190282918395
 20
90.12654185025857
 30
0.0
 11
152.690282918395
 21
89.45239143262449
 31
0.0
  0
LINE
  5
1314
330
87F
100
AcDbEntity
 67
     1
  8
0
  6
Continuous
370
    -3
100
AcDbLine
 10
156.690282918395
 20
89.45239143262449
 30
0.0
 11
157.190282918395
 21
90.12654185025857
 31
0.0
  0
LINE
  5
1315
330
87F
100
AcDbEntity
 67
     1
  8
0
  6
Continuous
370
    -3
100
AcDbLine
 10
157.190282918395
 20
90.12654185025857
 30
0.0
 11
157.190282918395
 21
90.99256725404307
 31
0.0
  0
LINE
  5
1316
330
87F
100
AcDbEntity
 67
     1
  8
0
  6
Continuous
370
    -3
100
AcDbLine
 10
157.190282918395
 20
90.99256725404307
 30
0.0
 11
156.690282918395
 21
91.18444224019336
 31
0.0
  0
LINE
  5
1317
330
87F
100
AcDbEntity
 67
     1
  8
0
  6
Continuous
370
    -3
100
AcDbLine
 10
152.690282918395
 20
94.411545400252
 30
0.0
 11
152.690282918395
 21
91.18444224019336
 31
0.0
  0
LINE
  5
1318
330
87F
100
AcDbEntity
 67
     1
  8
0
  6
Continuous
370
    -3
100
AcDbLine
 10
156.690282918395
 20
94.411545400252
 30
0.0
 11
156.690282918395
 21
91.18444224019336
 31
0.0
  0
LINE
  5
1319
330
87F
100
AcDbEntity
 67
     1
  8
0
  6
Continuous
370
    -3
100
AcDbLine
 10
156.690282918395
 20
91.18444224019336
 30
0.0
 11
152.690282918395
 21
91.18444224019336
 31
0.0
  0
LINE
  5
131A
330
87F
100
AcDbEntity
 67
     1
  8
0
  6
Continuous
370
    -3
100
AcDbLine
 10
156.690282918395
 20
89.45239143262449
 30
0.0
 11
152.690282918395
 21
89.45239143262449
 31
0.0
  0
LINE
  5
131B
330
87F
100
AcDbEntity
 67
     1
  8
0
  6
Continuous
370
    -3
100
AcDbLine
 10
157.190282918395
 20
90.12654185025857
 30
0.0
 11
152.190282918395
 21
90.12654185025857
 31
0.0
  0
LINE
  5
131C
330
87F
100
AcDbEntity
 67
     1
  8
0
  6
Continuous
370
    -3
100
AcDbLine
 10
157.190282918395
 20
90.99256725404307
 30
0.0
 11
152.190282918395
 21
90.99256725404307
 31
0.0
  0
LINE
  5
131D
330
87F
100
AcDbEntity
 67
     1
  8
0
  6
Continuous
370
    -3
100
AcDbLine
 10
157.190282918395
 20
95.98525620633848
 30
0.0
 11
152.190282918395
 21
95.98525620633848
 31
0.0
  0
LINE
  5
131E
330
87F
100
AcDbEntity
 67
     1
  8
0
  6
Continuous
370
    -3
100
AcDbLine
 10
157.190282918395
 20
95.01933038004947
 30
0.0
 11
152.190282918395
 21
95.01933038004947
 31
0.0
  0
LINE
  5
131F
330
87F
100
AcDbEntity
 67
     1
  8
0
  6
Continuous
370
    -3
100
AcDbLine
 10
152.690282918395
 20
96.34339705283009
 30
0.0
 11
152.190282918395
 21
95.98525620633848
 31
0.0
  0
LINE
  5
1320
330
87F
100
AcDbEntity
 67
     1
  8
0
  6
Continuous
370
    -3
100
AcDbLine
 10
152.190282918395
 20
95.98525620633848
 30
0.0
 11
152.190282918395
 21
95.01933038004947
 31
0.0
  0
LINE
  5
1321
330
87F
100
AcDbEntity
 67
     1
  8
0
  6
Continuous
370
    -3
100
AcDbLine
 10
152.190282918395
 20
95.01933038004947
 30
0.0
 11
152.690282918395
 21
94.411545400252
 31
0.0
  0
LINE
  5
1322
330
87F
100
AcDbEntity
 67
     1
  8
0
  6
Continuous
370
    -3
100
AcDbLine
 10
156.690282918395
 20
94.411545400252
 30
0.0
 11
157.190282918395
 21
95.01933038004947
 31
0.0
  0
LINE
  5
1323
330
87F
100
AcDbEntity
 67
     1
  8
0
  6
Continuous
370
    -3
100
AcDbLine
 10
157.190282918395
 20
95.01933038004947
 30
0.0
 11
157.190282918395
 21
95.98525620633848
 31
0.0
  0
LINE
  5
1324
330
87F
100
AcDbEntity
 67
     1
  8
0
  6
Continuous
370
    -3
100
AcDbLine
 10
157.190282918395
 20
95.98525620633848
 30
0.0
 11
156.690282918395
 21
96.34339705283009
 31
0.0
  0
LINE
  5
1325
330
87F
100
AcDbEntity
 67
     1
  8
0
  6
Continuous
370
    -3
100
AcDbLine
 10
152.690282918395
 20
99.8065053181105
 30
0.0
 11
152.690282918395
 21
96.34339705283009
 31
0.0
  0
LINE
  5
1326
330
87F
100
AcDbEntity
 67
     1
  8
0
  6
Continuous
370
    -3
100
AcDbLine
 10
156.690282918395
 20
99.8065053181105
 30
0.0
 11
156.690282918395
 21
96.34339705283009
 31
0.0
  0
LINE
  5
1327
330
87F
100
AcDbEntity
 67
     1
  8
0
  6
Continuous
370
    -3
100
AcDbLine
 10
156.690282918395
 20
96.34339705283009
 30
0.0
 11
152.690282918395
 21
96.34339705283009
 31
0.0
  0
LINE
  5
1328
330
87F
100
AcDbEntity
 67
     1
  8
0
  6
Continuous
370
    -3
100
AcDbLine
 10
156.690282918395
 20
94.411545400252
 30
0.0
 11
152.690282918395
 21
94.411545400252
 31
0.0
  0
LINE
  5
1329
330
87F
100
AcDbEntity
 67
     1
  8
0
  6
Continuous
370
    -3
100
AcDbLine
 10
157.190282918395
 20
100.3065053181104
 30
0.0
 11
152.190282918395
 21
100.3065053181104
 31
0.0
  0
LINE
  5
132A
330
87F
100
AcDbEntity
 67
     1
  8
0
  6
Continuous
370
    -3
100
AcDbLine
 10
157.190282918395
 20
100.3065053181104
 30
0.0
 11
156.690282918395
 21
99.8065053181105
 31
0.0
  0
LINE
  5
132B
330
87F
100
AcDbEntity
 67
     1
  8
0
  6
Continuous
370
    -3
100
AcDbLine
 10
156.690282918395
 20
99.8065053181105
 30
0.0
 11
152.690282918395
 21
99.8065053181105
 31
0.0
  0
LINE
  5
132C
330
87F
100
AcDbEntity
 67
     1
  8
0
  6
Continuous
370
    -3
100
AcDbLine
 10
152.690282918395
 20
99.8065053181105
 30
0.0
 11
152.190282918395
 21
100.3065053181104
 31
0.0
  0
LINE
  5
132D
330
87F
100
AcDbEntity
 67
     1
  8
0
  6
Continuous
370
    -3
100
AcDbLine
 10
152.690282918395
 20
80.28625520724714
 30
0.0
 11
152.690282918395
 21
79.80650531811045
 31
0.0
  0
LINE
  5
132E
330
87F
100
AcDbEntity
 67
     1
  8
0
  6
Continuous
370
    -3
100
AcDbLine
 10
156.690282918395
 20
80.28625520724714
 30
0.0
 11
156.690282918395
 21
79.80650531811045
 31
0.0
  0
LINE
  5
132F
330
87F
100
AcDbEntity
 67
     1
  8
0
  6
Continuous
370
    -3
100
AcDbLine
 10
110.712282918395
 20
81.5065053181105
 30
0.0
 11
110.912282918395
 21
81.30650531811047
 31
0.0
  0
LINE
  5
1330
330
87F
100
AcDbEntity
 67
     1
  8
0
  6
Continuous
370
    -3
100
AcDbLine
 10
110.912282918395
 20
81.30650531811047
 30
0.0
 11
116.2402829183949
 21
81.30650531811047
 31
0.0
  0
LINE
  5
1331
330
87F
100
AcDbEntity
 67
     1
  8
0
  6
Continuous
370
    -3
100
AcDbLine
 10
116.2402829183949
 20
81.30650531811047
 30
0.0
 11
116.7402829183949
 21
81.80650531811052
 31
0.0
  0
LINE
  5
1332
330
87F
100
AcDbEntity
 67
     1
  8
0
  6
Continuous
370
    -3
100
AcDbLine
 10
116.7402829183949
 20
81.80650531811052
 30
0.0
 11
117.2402829183949
 21
81.30650531811047
 31
0.0
  0
LINE
  5
1333
330
87F
100
AcDbEntity
 67
     1
  8
0
  6
Continuous
370
    -3
100
AcDbLine
 10
117.2402829183949
 20
81.30650531811047
 30
0.0
 11
125.7402829183949
 21
81.30650531811047
 31
0.0
  0
LINE
  5
1334
330
87F
100
AcDbEntity
 67
     1
  8
0
  6
Continuous
370
    -3
100
AcDbLine
 10
125.7402829183949
 20
81.30650531811047
 30
0.0
 11
126.4902829183949
 21
80.55650531811052
 31
0.0
  0
LINE
  5
1335
330
87F
100
AcDbEntity
 67
     1
  8
0
  6
Continuous
370
    -3
100
AcDbLine
 10
126.4902829183949
 20
80.55650531811052
 30
0.0
 11
131.3402829183951
 21
80.55650531811052
 31
0.0
  0
LINE
  5
1336
330
87F
100
AcDbEntity
 67
     1
  8
0
  6
Continuous
370
    -3
100
AcDbLine
 10
131.3402829183951
 20
80.55650531811052
 30
0.0
 11
131.540282918395
 21
80.75650531811048
 31
0.0
  0
LINE
  5
1337
330
87F
100
AcDbEntity
 67
     1
  8
0
  6
Continuous
370
    -3
100
AcDbLine
 10
131.540282918395
 20
81.65968257394045
 30
0.0
 11
131.7402829183949
 21
81.65332806228056
 31
0.0
  0
LINE
  5
1338
330
87F
100
AcDbEntity
 67
     1
  8
0
  6
Continuous
370
    -3
100
AcDbLine
 10
131.7402829183949
 20
80.75650531811048
 30
0.0
 11
131.9402829183951
 21
80.55650531811052
 31
0.0
  0
LINE
  5
1339
330
87F
100
AcDbEntity
 67
     1
  8
0
  6
Continuous
370
    -3
100
AcDbLine
 10
131.9402829183951
 20
80.55650531811052
 30
0.0
 11
141.340282918395
 21
80.55650531811052
 31
0.0
  0
LINE
  5
133A
330
87F
100
AcDbEntity
 67
     1
  8
0
  6
Continuous
370
    -3
100
AcDbLine
 10
141.340282918395
 20
80.55650531811052
 30
0.0
 11
141.540282918395
 21
80.75650531811048
 31
0.0
  0
LINE
  5
133B
330
87F
100
AcDbEntity
 67
     1
  8
0
  6
Continuous
370
    -3
100
AcDbLine
 10
141.540282918395
 20
81.30650531811047
 30
0.0
 11
141.7402829183949
 21
81.30650531811047
 31
0.0
  0
LINE
  5
133C
330
87F
100
AcDbEntity
 67
     1
  8
0
  6
Continuous
370
    -3
100
AcDbLine
 10
141.7402829183949
 20
80.75650531811048
 30
0.0
 11
141.940282918395
 21
80.55650531811052
 31
0.0
  0
LINE
  5
133D
330
87F
100
AcDbEntity
 67
     1
  8
0
  6
Continuous
370
    -3
100
AcDbLine
 10
141.940282918395
 20
80.55650531811052
 30
0.0
 11
144.5402829183949
 21
80.55650531811052
 31
0.0
  0
LINE
  5
133E
330
87F
100
AcDbEntity
 67
     1
  8
0
  6
Continuous
370
    -3
100
AcDbLine
 10
144.5402829183949
 20
80.55650531811052
 30
0.0
 11
144.740282918395
 21
80.75650531811048
 31
0.0
  0
LINE
  5
133F
330
87F
100
AcDbEntity
 67
     1
  8
0
  6
Continuous
370
    -3
100
AcDbLine
 10
144.740282918395
 20
82.55650531811046
 30
0.0
 11
144.940282918395
 21
82.55650531811046
 31
0.0
  0
LINE
  5
1340
330
87F
100
AcDbEntity
 67
     1
  8
0
  6
Continuous
370
    -3
100
AcDbLine
 10
144.940282918395
 20
80.75650531811048
 30
0.0
 11
145.1402829183949
 21
80.55650531811052
 31
0.0
  0
LINE
  5
1341
330
87F
100
AcDbEntity
 67
     1
  8
0
  6
Continuous
370
    -3
100
AcDbLine
 10
145.1402829183949
 20
80.55650531811052
 30
0.0
 11
151.940282918395
 21
80.55650531811052
 31
0.0
  0
LINE
  5
1342
330
87F
100
AcDbEntity
 67
     1
  8
0
  6
Continuous
370
    -3
100
AcDbLine
 10
151.940282918395
 20
80.55650531811052
 30
0.0
 11
152.690282918395
 21
79.80650531811045
 31
0.0
  0
LINE
  5
1343
330
87F
100
AcDbEntity
 67
     1
  8
0
  6
Continuous
370
    -3
100
AcDbLine
 10
152.690282918395
 20
79.80650531811045
 30
0.0
 11
156.690282918395
 21
79.80650531811045
 31
0.0
  0
LINE
  5
1344
330
87F
100
AcDbEntity
 67
     1
  8
0
  6
Continuous
370
    -3
100
AcDbLine
 10
156.690282918395
 20
79.80650531811045
 30
0.0
 11
157.440282918395
 21
80.55650531811052
 31
0.0
  0
LINE
  5
1345
330
87F
100
AcDbEntity
 67
     1
  8
0
  6
Continuous
370
    -3
100
AcDbLine
 10
157.440282918395
 20
80.55650531811052
 30
0.0
 11
162.340282918395
 21
80.55650531811052
 31
0.0
  0
LINE
  5
1346
330
87F
100
AcDbEntity
 67
     1
  8
0
  6
Continuous
370
    -3
100
AcDbLine
 10
162.340282918395
 20
80.55650531811052
 30
0.0
 11
162.5402829183949
 21
80.75650531811048
 31
0.0
  0
LINE
  5
1347
330
87F
100
AcDbEntity
 67
     1
  8
0
  6
Continuous
370
    -3
100
AcDbLine
 10
162.340282918395
 20
121.0565053181104
 30
0.0
 11
157.440282918395
 21
121.0565053181104
 31
0.0
  0
LINE
  5
1348
330
87F
100
AcDbEntity
 67
     1
  8
0
  6
Continuous
370
    -3
100
AcDbLine
 10
141.340282918395
 20
121.0565053181104
 30
0.0
 11
131.9402829183951
 21
121.0565053181104
 31
0.0
  0
LINE
  5
1349
330
87F
100
AcDbEntity
 67
     1
  8
0
  6
Continuous
370
    -3
100
AcDbLine
 10
149.0402829183949
 20
100.8065053181105
 30
0.0
 11
149.1402829183949
 21
100.8065053181105
 31
0.0
  0
LINE
  5
134A
330
87F
100
AcDbEntity
 67
     1
  8
0
  6
Continuous
370
    -3
100
AcDbLine
 10
149.1402829183949
 20
100.8065053181105
 30
0.0
 11
149.2402829183949
 21
100.8065053181105
 31
0.0
  0
CIRCLE
  5
134B
330
87F
100
AcDbEntity
 67
     1
  8
0
  6
Continuous
370
    -3
100
AcDbCircle
 10
148.940282918395
 20
100.8065053181105
 30
0.0
 40
0.2999999999999829
  0
CIRCLE
  5
134C
330
87F
100
AcDbEntity
 67
     1
  8
0
  6
Continuous
370
    -3
100
AcDbCircle
 10
148.940282918395
 20
88.77988786594448
 30
0.0
 40
0.2999999999999829
  0
CIRCLE
  5
134D
330
87F
100
AcDbEntity
 67
     1
  8
0
  6
Continuous
370
    -3
100
AcDbCircle
 10
138.5550833687582
 20
83.61165438649033
 30
0.0
 40
0.3000000000000114
  0
TEXT
  5
134E
330
87F
100
AcDbEntity
 67
     1
  8
0
  6
Continuous
370
    -3
100
AcDbText
 10
145.9402949242114
 20
106.7825129682971
 30
0.0
 40
1.5
  1
m
 50
270.0
 41
0.6241134751773051
  7
ED_VECTOR
 72
     5
 11
145.9402949242114
 21
105.7825129682971
 31
0.0
100
AcDbText
  0
TEXT
  5
134F
330
87F
100
AcDbEntity
 67
     1
  8
0
  6
Continuous
370
    -3
100
AcDbText
 10
146.0477167992114
 20
101.5615046675158
 30
0.0
 40
1.5
  1
∞
 50
270.0
 41
0.4583333333333333
  7
ED_VECTOR
 72
     5
 11
146.0477167992114
 21
100.5615046675158
 31
0.0
100
AcDbText
  0
TEXT
  5
1350
330
87F
100
AcDbEntity
 67
     1
  8
0
  6
Continuous
370
    -3
100
AcDbText
 10
145.9402949242114
 20
96.87075454544554
 30
0.0
 40
1.5
  1
0.8
 50
270.0
 41
0.8571428571428517
  7
ED_VECTOR
 72
     5
 11
145.9402949242114
 21
94.62075454544555
 31
0.0
100
AcDbText
  0
TEXT
  5
1351
330
87F
100
AcDbEntity
 67
     1
  8
0
  6
Continuous
370
    -3
100
AcDbText
 10
145.9402949242114
 20
92.59360915970335
 30
0.0
 40
1.5
  1
0.4
 50
270.0
 41
0.8571428571428572
  7
ED_VECTOR
 72
     5
 11
145.9402949242114
 21
90.34360915970335
 31
0.0
100
AcDbText
  0
TEXT
  5
1352
330
87F
100
AcDbEntity
 67
     1
  8
0
  6
Continuous
370
    -3
100
AcDbText
 10
145.9402949242114
 20
89.57444412064084
 30
0.0
 40
1.5
  1
0.3
 50
270.0
 41
0.685714312962118
  7
ED_VECTOR
 72
     5
 11
145.9402949242114
 21
87.77444404911529
 31
0.0
100
AcDbText
  0
TEXT
  5
1353
330
87F
100
AcDbEntity
 67
     1
  8
0
  6
Continuous
370
    -3
100
AcDbText
 10
145.9402949242114
 20
85.71661025833618
 30
0.0
 40
1.5
  1
0.2
 50
270.0
 41
0.5714285714285714
  7
ED_VECTOR
 72
     5
 11
145.9402949242114
 21
84.21661025833619
 31
0.0
100
AcDbText
  0
TEXT
  5
1354
330
87F
100
AcDbEntity
 67
     1
  8
0
  6
Continuous
370
    -3
100
AcDbText
 10
145.9402949242114
 20
82.66651565384401
 30
0.0
 40
1.5
  1
0.15
 50
270.0
 41
0.5382262996941897
  7
ED_VECTOR
 72
     5
 11
145.9402949242114
 21
80.66651565384402
 31
0.0
100
AcDbText
  0
TEXT
  5
1355
330
87F
100
AcDbEntity
 67
     1
  8
0
  6
Continuous
370
    -3
100
AcDbText
 10
148.2282282738208
 20
82.38294631790651
 30
0.0
 40
1.412059903144834
  1
0.07
 50
270.0
 41
0.5221308677749525
  7
ED_VECTOR
 72
     5
 11
148.2282282738208
 21
80.55650252651707
 31
0.0
100
AcDbText
  0
TEXT
  5
1356
330
87F
100
AcDbEntity
 67
     1
  8
0
  6
Continuous
370
    -3
100
AcDbText
 10
148.2911250023364
 20
86.21700698685179
 30
0.0
 40
1.357576251029968
  1
0.056
 50
270.0
 41
0.7511835305960778
  7
ED_VECTOR
 72
     5
 11
148.2911250023364
 21
82.9490470344974
 31
0.0
100
AcDbText
  0
TEXT
  5
1357
330
87F
100
AcDbEntity
 67
     1
  8
0
  6
Continuous
370
    -3
100
AcDbText
 10
148.2072626976489
 20
97.84650832962531
 30
0.0
 40
1.5
  1
0.015
 50
270.0
 41
0.7801418439716313
  7
ED_VECTOR
 72
     5
 11
148.2072626976489
 21
94.09650832962531
 31
0.0
100
AcDbText
  0
TEXT
  5
1358
330
87F
100
AcDbEntity
 67
     1
  8
0
  6
Continuous
370
    -3
100
AcDbText
 10
147.9402949242114
 20
106.9596675093128
 30
0.0
 40
2.0
  1
X
 50
270.0
 41
0.5714285714285714
  7
ED_VECTOR
 72
     5
 11
147.9402949242114
 21
105.9596675093128
 31
0.0
100
AcDbText
  0
TEXT
  5
1359
330
87F
100
AcDbEntity
 67
     1
  8
0
  6
Continuous
370
    -3
100
AcDbText
 10
145.9402949242114
 20
121.0241053755237
 30
0.0
 40
1.5
  1
 1:1.4
 50
270.0
 41
0.6219081272084807
  7
ED_VECTOR
 72
     5
 11
145.9402949242114
 21
118.0241053755237
 31
0.0
100
AcDbText
  0
TEXT
  5
135A
330
87F
100
AcDbEntity
 67
     1
  8
0
  6
Continuous
370
    -3
100
AcDbText
 10
137.5402857689381
 20
102.4070399458361
 30
0.0
 40
2.0
  1
1.4
 50
270.0
 41
0.8571428571428327
  7
ED_VECTOR
 72
     5
 11
137.5402857689381
 21
99.40703994583618
 31
0.0
100
AcDbText
  0
TEXT
  5
135B
330
87F
100
AcDbEntity
 67
     1
  8
0
  6
Continuous
370
    -3
100
AcDbText
 10
137.5402857689381
 20
93.20449477982055
 30
0.0
 40
2.0
  1
2
 50
270.0
 41
0.6875
  7
ED_VECTOR
 72
     5
 11
137.5402857689381
 21
92.20449477982056
 31
0.0
100
AcDbText
  0
TEXT
  5
135C
330
87F
100
AcDbEntity
 67
     1
  8
0
  6
Continuous
370
    -3
100
AcDbText
 10
137.5402857689381
 20
90.03362685989868
 30
0.0
 40
2.0
  1
2.8
 50
270.0
 41
0.8571428571428612
  7
ED_VECTOR
 72
     5
 11
137.5402857689381
 21
87.03362685989866
 31
0.0
100
AcDbText
  0
TEXT
  5
135D
330
87F
100
AcDbEntity
 67
     1
  8
0
  6
Continuous
370
    -3
100
AcDbText
 10
137.5402857689381
 20
85.83399612259398
 30
0.0
 40
2.0
  1
4
 50
270.0
 41
0.6874999999999805
  7
ED_VECTOR
 72
     5
 11
137.5402857689381
 21
84.83399612259402
 31
0.0
100
AcDbText
  0
TEXT
  5
135E
330
87F
100
AcDbEntity
 67
     1
  8
0
  6
Continuous
370
    -3
100
AcDbText
 10
137.5402857689381
 20
82.90975601028938
 30
0.0
 40
2.0
  1
8
 50
270.0
 41
0.5156250000000196
  7
ED_VECTOR
 72
     5
 11
137.5402857689381
 21
82.15975601028935
 31
0.0
100
AcDbText
  0
TEXT
  5
135F
330
87F
100
AcDbEntity
 67
     1
  8
0
  6
Continuous
370
    -3
100
AcDbText
 10
137.5402857689381
 20
82.02897292923465
 30
0.0
 40
2.0
  1
16
 50
270.0
 41
0.3437500000000098
  7
ED_VECTOR
 72
     5
 11
137.5402857689381
 21
81.02897292923463
 31
0.0
100
AcDbText
  0
LINE
  5
1360
330
87F
100
AcDbEntity
 67
     1
  8
0
  6
Continuous
370
    -3
100
AcDbLine
 10
140.040282918395
 20
81.50824703739372
 30
0.0
 11
141.540282918395
 21
81.50824703739372
 31
0.0
  0
LINE
  5
1361
330
87F
100
AcDbEntity
 67
     1
  8
0
  6
Continuous
370
    -3
100
AcDbLine
 10
141.540282918395
 20
81.50824703739372
 30
0.0
 11
141.540282918395
 21
81.62824703739373
 31
0.0
  0
LINE
  5
1362
330
87F
100
AcDbEntity
 67
     1
  8
0
  6
Continuous
370
    -3
100
AcDbLine
 10
141.540282918395
 20
81.62824703739373
 30
0.0
 11
140.040282918395
 21
81.62824703739373
 31
0.0
  0
LINE
  5
1363
330
87F
100
AcDbEntity
 67
     1
  8
0
  6
Continuous
370
    -3
100
AcDbLine
 10
140.040282918395
 20
81.62824703739373
 30
0.0
 11
140.040282918395
 21
81.50824703739372
 31
0.0
  0
LINE
  5
1364
330
87F
100
AcDbEntity
 67
     1
  8
0
  6
Continuous
370
    -3
100
AcDbLine
 10
141.540282918395
 20
82.47439665840692
 30
0.0
 11
140.040282918395
 21
82.47439665840692
 31
0.0
  0
LINE
  5
1365
330
87F
100
AcDbEntity
 67
     1
  8
0
  6
Continuous
370
    -3
100
AcDbLine
 10
140.040282918395
 20
82.47439665840692
 30
0.0
 11
140.040282918395
 21
82.61439665840688
 31
0.0
  0
LINE
  5
1366
330
87F
100
AcDbEntity
 67
     1
  8
0
  6
Continuous
370
    -3
100
AcDbLine
 10
140.040282918395
 20
82.61439665840688
 30
0.0
 11
141.540282918395
 21
82.61439665840688
 31
0.0
  0
LINE
  5
1367
330
87F
100
AcDbEntity
 67
     1
  8
0
  6
Continuous
370
    -3
100
AcDbLine
 10
141.540282918395
 20
82.61439665840688
 30
0.0
 11
141.540282918395
 21
82.47439665840692
 31
0.0
  0
LINE
  5
1368
330
87F
100
AcDbEntity
 67
     1
  8
0
  6
Continuous
370
    -3
100
AcDbLine
 10
140.040282918395
 20
83.52165438649036
 30
0.0
 11
141.540282918395
 21
83.52165438649036
 31
0.0
  0
LINE
  5
1369
330
87F
100
AcDbEntity
 67
     1
  8
0
  6
Continuous
370
    -3
100
AcDbLine
 10
141.540282918395
 20
83.52165438649036
 30
0.0
 11
141.540282918395
 21
83.70165438649037
 31
0.0
  0
LINE
  5
136A
330
87F
100
AcDbEntity
 67
     1
  8
0
  6
Continuous
370
    -3
100
AcDbLine
 10
141.540282918395
 20
83.70165438649037
 30
0.0
 11
140.040282918395
 21
83.70165438649037
 31
0.0
  0
LINE
  5
136B
330
87F
100
AcDbEntity
 67
     1
  8
0
  6
Continuous
370
    -3
100
AcDbLine
 10
140.040282918395
 20
83.70165438649037
 30
0.0
 11
140.040282918395
 21
83.52165438649036
 31
0.0
  0
LINE
  5
136C
330
87F
100
AcDbEntity
 67
     1
  8
0
  6
Continuous
370
    -3
100
AcDbLine
 10
141.540282918395
 20
85.48848477027403
 30
0.0
 11
140.040282918395
 21
85.48848477027403
 31
0.0
  0
LINE
  5
136D
330
87F
100
AcDbEntity
 67
     1
  8
0
  6
Continuous
370
    -3
100
AcDbLine
 10
140.040282918395
 20
85.48848477027403
 30
0.0
 11
140.040282918395
 21
85.26848477027414
 31
0.0
  0
LINE
  5
136E
330
87F
100
AcDbEntity
 67
     1
  8
0
  6
Continuous
370
    -3
100
AcDbLine
 10
140.040282918395
 20
85.26848477027414
 30
0.0
 11
141.540282918395
 21
85.26848477027414
 31
0.0
  0
LINE
  5
136F
330
87F
100
AcDbEntity
 67
     1
  8
0
  6
Continuous
370
    -3
100
AcDbLine
 10
141.540282918395
 20
85.26848477027414
 30
0.0
 11
141.540282918395
 21
85.48848477027403
 31
0.0
  0
LINE
  5
1370
330
87F
100
AcDbEntity
 67
     1
  8
0
  6
Continuous
370
    -3
100
AcDbLine
 10
140.040282918395
 20
88.42858799364567
 30
0.0
 11
141.540282918395
 21
88.42858799364567
 31
0.0
  0
LINE
  5
1371
330
87F
100
AcDbEntity
 67
     1
  8
0
  6
Continuous
370
    -3
100
AcDbLine
 10
141.540282918395
 20
88.42858799364567
 30
0.0
 11
141.540282918395
 21
88.68858799364568
 31
0.0
  0
LINE
  5
1372
330
87F
100
AcDbEntity
 67
     1
  8
0
  6
Continuous
370
    -3
100
AcDbLine
 10
141.540282918395
 20
88.68858799364568
 30
0.0
 11
140.040282918395
 21
88.68858799364568
 31
0.0
  0
LINE
  5
1373
330
87F
100
AcDbEntity
 67
     1
  8
0
  6
Continuous
370
    -3
100
AcDbLine
 10
140.040282918395
 20
88.68858799364568
 30
0.0
 11
140.040282918395
 21
88.42858799364567
 31
0.0
  0
LINE
  5
1374
330
87F
100
AcDbEntity
 67
     1
  8
0
  6
Continuous
370
    -3
100
AcDbLine
 10
141.540282918395
 20
92.88183667237429
 30
0.0
 11
140.040282918395
 21
92.88183667237429
 31
0.0
  0
LINE
  5
1375
330
87F
100
AcDbEntity
 67
     1
  8
0
  6
Continuous
370
    -3
100
AcDbLine
 10
140.040282918395
 20
92.88183667237429
 30
0.0
 11
140.040282918395
 21
92.5818366723743
 31
0.0
  0
LINE
  5
1376
330
87F
100
AcDbEntity
 67
     1
  8
0
  6
Continuous
370
    -3
100
AcDbLine
 10
140.040282918395
 20
92.5818366723743
 30
0.0
 11
141.540282918395
 21
92.5818366723743
 31
0.0
  0
LINE
  5
1377
330
87F
100
AcDbEntity
 67
     1
  8
0
  6
Continuous
370
    -3
100
AcDbLine
 10
141.540282918395
 20
92.5818366723743
 30
0.0
 11
141.540282918395
 21
92.88183667237429
 31
0.0
  0
LINE
  5
1378
330
87F
100
AcDbEntity
 67
     1
  8
0
  6
Continuous
370
    -3
100
AcDbLine
 10
140.040282918395
 20
100.6565053181103
 30
0.0
 11
141.540282918395
 21
100.6565053181103
 31
0.0
  0
LINE
  5
1379
330
87F
100
AcDbEntity
 67
     1
  8
0
  6
Continuous
370
    -3
100
AcDbLine
 10
141.540282918395
 20
100.6565053181103
 30
0.0
 11
141.540282918395
 21
100.9565053181105
 31
0.0
  0
LINE
  5
137A
330
87F
100
AcDbEntity
 67
     1
  8
0
  6
Continuous
370
    -3
100
AcDbLine
 10
141.540282918395
 20
100.9565053181105
 30
0.0
 11
140.040282918395
 21
100.9565053181105
 31
0.0
  0
LINE
  5
137B
330
87F
100
AcDbEntity
 67
     1
  8
0
  6
Continuous
370
    -3
100
AcDbLine
 10
140.040282918395
 20
100.9565053181105
 30
0.0
 11
140.040282918395
 21
100.6565053181103
 31
0.0
  0
LINE
  5
137C
330
87F
100
AcDbEntity
 67
     1
  8
0
  6
Continuous
370
    -3
100
AcDbLine
 10
144.740282918395
 20
101.0565053181104
 30
0.0
 11
141.7402829183949
 21
101.0565053181104
 31
0.0
  0
LINE
  5
137D
330
87F
100
AcDbEntity
 67
     1
  8
0
  6
Continuous
370
    -3
100
AcDbLine
 10
144.740282918395
 20
100.5565053181105
 30
0.0
 11
141.7402829183949
 21
100.5565053181105
 31
0.0
  0
LINE
  5
137E
330
87F
100
AcDbEntity
 67
     1
  8
0
  6
Continuous
370
    -3
100
AcDbLine
 10
144.740282918395
 20
100.5565053181105
 30
0.0
 11
144.740282918395
 21
101.0565053181104
 31
0.0
  0
CIRCLE
  5
137F
330
87F
100
AcDbEntity
 67
     1
  8
0
  6
Continuous
370
    -3
100
AcDbCircle
 10
148.940282918395
 20
91.40667857921407
 30
0.0
 40
0.2999999999999829
  0
LINE
  5
1380
330
87F
100
AcDbEntity
 67
     1
  8
0
  6
Continuous
370
    -3
100
AcDbLine
 10
152.190282918395
 20
101.3065053181104
 30
0.0
 11
152.190282918395
 21
100.3065053181104
 31
0.0
  0
LINE
  5
1381
330
87F
100
AcDbEntity
 67
     1
  8
0
  6
Continuous
370
    -3
100
AcDbLine
 10
162.540282918395
 20
118.0565053181104
 30
0.0
 11
162.740282918395
 21
118.0565053181104
 31
0.0
  0
LINE
  5
1382
330
87F
100
AcDbEntity
 67
     1
  8
0
  6
Continuous
370
    -3
100
AcDbLine
 10
162.540282918395
 20
83.55650531811045
 30
0.0
 11
162.740282918395
 21
83.55650531811045
 31
0.0
  0
LINE
  5
1383
330
87F
100
AcDbEntity
 67
     1
  8
0
  6
Continuous
370
    -3
100
AcDbLine
 10
178.5416105054549
 20
111.0565053181105
 30
0.0
 11
178.741610505455
 21
110.8565053181104
 31
0.0
  0
LINE
  5
1384
330
87F
100
AcDbEntity
 67
     1
  8
0
  6
Continuous
370
    -3
100
AcDbLine
 10
176.7127850363212
 20
111.0565053181105
 30
0.0
 11
178.5416105054549
 21
111.0565053181105
 31
0.0
  0
LINE
  5
1385
330
87F
100
AcDbEntity
 67
     1
  8
0
  6
Continuous
370
    -3
100
AcDbLine
 10
178.741610505455
 20
110.8565053181104
 30
0.0
 11
178.741610505455
 21
90.75650531811048
 31
0.0
  0
LINE
  5
1386
330
87F
100
AcDbEntity
 67
     1
  8
0
  6
Continuous
370
    -3
100
AcDbLine
 10
178.5416105054549
 20
90.55650531811048
 30
0.0
 11
178.741610505455
 21
90.75650531811048
 31
0.0
  0
LINE
  5
1387
330
87F
100
AcDbEntity
 67
     1
  8
0
  6
Continuous
370
    -3
100
AcDbLine
 10
178.5416105054549
 20
90.55650531811048
 30
0.0
 11
178.5416105054549
 21
111.0565053181105
 31
0.0
  0
LINE
  5
1388
330
87F
100
AcDbEntity
 67
     1
  8
0
  6
Continuous
370
    -3
100
AcDbLine
 10
176.312594179753
 20
113.5065053181104
 30
0.0
 11
174.1127850363211
 21
113.5065053181104
 31
0.0
  0
LINE
  5
1389
330
87F
100
AcDbEntity
 67
     1
  8
0
  6
Continuous
370
    -3
100
AcDbLine
 10
176.312594179753
 20
113.5065053181104
 30
0.0
 11
176.7127850363213
 21
113.1065053181103
 31
0.0
  0
LINE
  5
138A
330
87F
100
AcDbEntity
 67
     1
  8
0
  6
Continuous
370
    -3
100
AcDbLine
 10
173.7127850363213
 20
113.1065053181103
 30
0.0
 11
176.7127850363213
 21
113.1065053181103
 31
0.0
  0
LINE
  5
138B
330
87F
100
AcDbEntity
 67
     1
  8
0
  6
Continuous
370
    -3
100
AcDbLine
 10
172.7127850363209
 20
86.05650531811008
 30
0.0
 11
172.7127850363213
 21
115.5565053181105
 31
0.0
  0
LINE
  5
138C
330
87F
100
AcDbEntity
 67
     1
  8
0
  6
Continuous
370
    -3
100
AcDbLine
 10
174.1127850363211
 20
113.5065053181104
 30
0.0
 11
173.7127850363213
 21
113.1065053181103
 31
0.0
  0
LINE
  5
138D
330
87F
100
AcDbEntity
 67
     1
  8
0
  6
Continuous
370
    -3
100
AcDbLine
 10
176.312785036321
 20
113.5065053181104
 30
0.0
 11
176.312594179753
 21
113.5065053181104
 31
0.0
  0
LINE
  5
138E
330
87F
100
AcDbEntity
 67
     1
  8
0
  6
Continuous
370
    -3
100
AcDbLine
 10
172.0127850363211
 20
120.9565053181103
 30
0.0
 11
171.740282918395
 21
120.9565053181103
 31
0.0
  0
LINE
  5
138F
330
87F
100
AcDbEntity
 67
     1
  8
0
  6
Continuous
370
    -3
100
AcDbLine
 10
172.2127850363213
 20
80.85650531811053
 30
0.0
 11
172.2127850363213
 21
120.7565053181104
 31
0.0
  0
LINE
  5
1390
330
87F
100
AcDbEntity
 67
     1
  8
0
  6
Continuous
370
    -3
100
AcDbLine
 10
172.0127850363211
 20
120.9565053181103
 30
0.0
 11
172.2127850363213
 21
120.7565053181104
 31
0.0
  0
LINE
  5
1391
330
87F
100
AcDbEntity
 67
     1
  8
0
  6
Continuous
370
    -3
100
AcDbLine
 10
173.7127850363213
 20
113.1065053181103
 30
0.0
 11
173.7127850363165
 21
88.5065053181105
 31
0.0
  0
LINE
  5
1392
330
87F
100
AcDbEntity
 67
     1
  8
0
  6
Continuous
370
    -3
100
AcDbLine
 10
172.7127850363213
 20
115.5565053181105
 30
0.0
 11
172.2127850363213
 21
116.0565053181104
 31
0.0
  0
LINE
  5
1393
330
87F
100
AcDbEntity
 67
     1
  8
0
  6
Continuous
370
    -3
100
AcDbLine
 10
173.7127850363213
 20
112.9565053181103
 30
0.0
 11
172.7127850363213
 21
112.9565053181103
 31
0.0
  0
LINE
  5
1394
330
87F
100
AcDbEntity
 67
     1
  8
0
  6
Continuous
370
    -3
100
AcDbLine
 10
176.312594179753
 20
88.10650531811047
 30
0.0
 11
174.1127850363211
 21
88.10650531811047
 31
0.0
  0
LINE
  5
1395
330
87F
100
AcDbEntity
 67
     1
  8
0
  6
Continuous
370
    -3
100
AcDbLine
 10
176.312594179753
 20
88.10650531811047
 30
0.0
 11
176.7127850363213
 21
88.5065053181105
 31
0.0
  0
LINE
  5
1396
330
87F
100
AcDbEntity
 67
     1
  8
0
  6
Continuous
370
    -3
100
AcDbLine
 10
173.7127850363213
 20
88.5065053181105
 30
0.0
 11
176.7127850363213
 21
88.5065053181105
 31
0.0
  0
LINE
  5
1397
330
87F
100
AcDbEntity
 67
     1
  8
0
  6
Continuous
370
    -3
100
AcDbLine
 10
174.1127850363211
 20
88.10650531811047
 30
0.0
 11
173.7127850363213
 21
88.5065053181105
 31
0.0
  0
LINE
  5
1398
330
87F
100
AcDbEntity
 67
     1
  8
0
  6
Continuous
370
    -3
100
AcDbLine
 10
176.312785036321
 20
88.10650531811047
 30
0.0
 11
176.312594179753
 21
88.10650531811047
 31
0.0
  0
LINE
  5
1399
330
87F
100
AcDbEntity
 67
     1
  8
0
  6
Continuous
370
    -3
100
AcDbLine
 10
172.0127850363211
 20
80.65650531811042
 30
0.0
 11
171.740282918395
 21
80.65650531811042
 31
0.0
  0
LINE
  5
139A
330
87F
100
AcDbEntity
 67
     1
  8
0
  6
Continuous
370
    -3
100
AcDbLine
 10
172.0127850363211
 20
80.65650531811042
 30
0.0
 11
172.2127850363213
 21
80.85650531811053
 31
0.0
  0
LINE
  5
139B
330
87F
100
AcDbEntity
 67
     1
  8
0
  6
Continuous
370
    -3
100
AcDbLine
 10
172.7127850363213
 20
86.05650531811035
 30
0.0
 11
172.2127850363213
 21
85.55650531811037
 31
0.0
  0
LINE
  5
139C
330
87F
100
AcDbEntity
 67
     1
  8
0
  6
Continuous
370
    -3
100
AcDbLine
 10
173.7127850363213
 20
88.65650531811047
 30
0.0
 11
172.7127850363213
 21
88.65650531811047
 31
0.0
  0
LINE
  5
139D
330
87F
100
AcDbEntity
 67
     1
  8
0
  6
Continuous
370
    -3
100
AcDbLine
 10
176.7127850363199
 20
88.5065053181105
 30
0.0
 11
176.7127850363213
 21
113.1065053181103
 31
0.0
  0
LINE
  5
139E
330
87F
100
AcDbEntity
 67
     1
  8
0
  6
Continuous
370
    -3
100
AcDbLine
 10
171.740282918395
 20
122.5565053181105
 30
0.0
 11
171.740282918395
 21
79.05650531811045
 31
0.0
  0
LINE
  5
139F
330
87F
100
AcDbEntity
 67
     1
  8
0
  6
Continuous
370
    -3
100
AcDbLine
 10
171.740282918395
 20
122.5565053181105
 30
0.0
 11
171.240282918395
 21
123.0565053181104
 31
0.0
  0
LINE
  5
13A0
330
87F
100
AcDbEntity
 67
     1
  8
0
  6
Continuous
370
    -3
100
AcDbLine
 10
164.990282918395
 20
123.0565053181104
 30
0.0
 11
171.240282918395
 21
123.0565053181104
 31
0.0
  0
LINE
  5
13A1
330
87F
100
AcDbEntity
 67
     1
  8
0
  6
Continuous
370
    -3
100
AcDbLine
 10
162.740282918395
 20
80.85650531811047
 30
0.0
 11
162.740282918395
 21
120.7565053181104
 31
0.0
  0
LINE
  5
13A2
330
87F
100
AcDbEntity
 67
     1
  8
0
  6
Continuous
370
    -3
100
AcDbLine
 10
163.040282918395
 20
121.0565053181104
 30
0.0
 11
162.740282918395
 21
120.7565053181104
 31
0.0
  0
LINE
  5
13A3
330
87F
100
AcDbEntity
 67
     1
  8
0
  6
Continuous
370
    -3
100
AcDbLine
 10
163.740282918395
 20
121.0565053181104
 30
0.0
 11
163.040282918395
 21
121.0565053181104
 31
0.0
  0
LINE
  5
13A4
330
87F
100
AcDbEntity
 67
     1
  8
0
  6
Continuous
370
    -3
100
AcDbLine
 10
163.740282918395
 20
121.8065053181105
 30
0.0
 11
163.740282918395
 21
79.80650531811045
 31
0.0
  0
LINE
  5
13A5
330
87F
100
AcDbEntity
 67
     1
  8
0
  6
Continuous
370
    -3
100
AcDbLine
 10
164.990282918395
 20
123.0565053181104
 30
0.0
 11
163.740282918395
 21
121.8065053181105
 31
0.0
  0
LINE
  5
13A6
330
87F
100
AcDbEntity
 67
     1
  8
0
  6
Continuous
370
    -3
100
AcDbLine
 10
171.740282918395
 20
79.05650531811045
 30
0.0
 11
171.240282918395
 21
78.55650531811045
 31
0.0
  0
LINE
  5
13A7
330
87F
100
AcDbEntity
 67
     1
  8
0
  6
Continuous
370
    -3
100
AcDbLine
 10
164.990282918395
 20
78.55650531811045
 30
0.0
 11
171.240282918395
 21
78.55650531811045
 31
0.0
  0
LINE
  5
13A8
330
87F
100
AcDbEntity
 67
     1
  8
0
  6
Continuous
370
    -3
100
AcDbLine
 10
163.040282918395
 20
80.55650531811044
 30
0.0
 11
162.740282918395
 21
80.85650531811046
 31
0.0
  0
LINE
  5
13A9
330
87F
100
AcDbEntity
 67
     1
  8
0
  6
Continuous
370
    -3
100
AcDbLine
 10
163.740282918395
 20
80.55650531811044
 30
0.0
 11
163.040282918395
 21
80.55650531811044
 31
0.0
  0
LINE
  5
13AA
330
87F
100
AcDbEntity
 67
     1
  8
0
  6
Continuous
370
    -3
100
AcDbLine
 10
164.990282918395
 20
78.55650531811045
 30
0.0
 11
163.740282918395
 21
79.80650531811045
 31
0.0
  0
LINE
  5
13AB
330
87F
100
AcDbEntity
 67
     1
  8
0
  6
Continuous
370
    -3
100
AcDbLine
 10
176.71278503632
 20
90.55650531811048
 30
0.0
 11
178.5416105054549
 21
90.55650531811048
 31
0.0
  0
LINE
  5
13AC
330
87F
100
AcDbEntity
 67
     1
  8
0
  6
Continuous
370
    -3
100
AcDbLine
 10
163.040282918395
 20
80.55650531811044
 30
0.0
 11
163.040282918395
 21
121.0565053181104
 31
0.0
  0
LINE
  5
13AD
330
87F
100
AcDbEntity
 67
     1
  8
0
  6
Continuous
370
    -3
100
AcDbLine
 10
164.990282918395
 20
123.0565053181104
 30
0.0
 11
164.990282918395
 21
78.55650531811045
 31
0.0
  0
LINE
  5
13AE
330
87F
100
AcDbEntity
 67
     1
  8
0
  6
Continuous
370
    -3
100
AcDbLine
 10
171.240282918395
 20
78.55650531811045
 30
0.0
 11
171.240282918395
 21
123.0565053181104
 31
0.0
  0
LINE
  5
13AF
330
87F
100
AcDbEntity
 67
     1
  8
0
  6
Continuous
370
    -3
100
AcDbLine
 10
172.0127850363211
 20
120.7565053181104
 30
0.0
 11
172.0127850363211
 21
80.65650531811042
 31
0.0
  0
LINE
  5
13B0
330
87F
100
AcDbEntity
 67
     1
  8
0
  6
Continuous
370
    -3
100
AcDbLine
 10
174.1127850363211
 20
88.10650531811047
 30
0.0
 11
174.1127850363211
 21
113.5065053181104
 31
0.0
  0
LINE
  5
13B1
330
87F
100
AcDbEntity
 67
     1
  8
0
  6
Continuous
370
    -3
100
AcDbLine
 10
176.312785036321
 20
113.5065053181104
 30
0.0
 11
176.312785036321
 21
88.10650531811047
 31
0.0
  0
LINE
  5
13B2
330
87F
100
AcDbEntity
 67
     1
  8
0
  6
DOT
370
    -3
100
AcDbLine
 10
113.7122829183949
 20
119.5565053181104
 30
0.0
 11
110.712282918395
 21
119.5565053181104
 31
0.0
  0
LINE
  5
13B3
330
87F
100
AcDbEntity
 67
     1
  8
0
  6
DOT
370
    -3
100
AcDbLine
 10
113.7122829183949
 20
119.3065053181104
 30
0.0
 11
110.712282918395
 21
119.3065053181104
 31
0.0
  0
LINE
  5
13B4
330
87F
100
AcDbEntity
 67
     1
  8
0
  6
DOT
370
    -3
100
AcDbLine
 10
113.7122829183949
 20
82.05650531811048
 30
0.0
 11
110.712282918395
 21
82.05650531811048
 31
0.0
  0
LINE
  5
13B5
330
87F
100
AcDbEntity
 67
     1
  8
0
  6
DOT
370
    -3
100
AcDbLine
 10
113.7122829183949
 20
82.30650531811049
 30
0.0
 11
110.712282918395
 21
82.30650531811049
 31
0.0
  0
ENDSEC
  0
SECTION
  2
OBJECTS
  0
DICTIONARY
  5
C
330
0
100
AcDbDictionary
281
     1
  3
ACAD_CIP_PREVIOUS_PRODUCT_INFO
350
87D
  3
ACAD_COLOR
350
860
  3
ACAD_DETAILVIEWSTYLE
350
879
  3
ACAD_GROUP
350
D
  3
ACAD_LAYOUT
350
1A
  3
ACAD_MATERIAL
350
82E
  3
ACAD_MLEADERSTYLE
350
875
  3
ACAD_MLINESTYLE
350
17
  3
ACAD_PLOTSETTINGS
350
19
  3
ACAD_PLOTSTYLENAME
350
E
  3
ACAD_SCALELIST
350
863
  3
ACAD_SECTIONVIEWSTYLE
350
877
  3
ACAD_TABLESTYLE
350
861
  3
ACAD_VISUALSTYLE
350
847
  3
ACDB_RECOMPOSE_DATA
350
149A
  3
AcDbVariableDictionary
350
AEA
  0
DICTIONARY
  5
886
330
2
100
AcDbDictionary
280
     1
281
     1
  3
ACAD_LAYERSTATES
360
887
  0
DICTIONARY
  5
B7E
330
10
100
AcDbDictionary
280
     1
281
     1
  3
ADSK_XREC_LAYER_RECONCILED
360
B7F
  0
DICTIONARY
  5
B80
330
B7
100
AcDbDictionary
280
     1
281
     1
  3
ADSK_XREC_LAYER_RECONCILED
360
B81
  0
DICTIONARY
  5
B82
330
B8
100
AcDbDictionary
280
     1
281
     1
  3
ADSK_XREC_LAYER_RECONCILED
360
B83
  0
DICTIONARY
  5
B84
330
B9
100
AcDbDictionary
280
     1
281
     1
  3
ADSK_XREC_LAYER_RECONCILED
360
B85
  0
DICTIONARY
  5
B86
330
BB
100
AcDbDictionary
280
     1
281
     1
  3
ADSK_XREC_LAYER_RECONCILED
360
B87
  0
DICTIONARY
  5
B88
330
BC
100
AcDbDictionary
280
     1
281
     1
  3
ADSK_XREC_LAYER_RECONCILED
360
B89
  0
DICTIONARY
  5
B8A
330
BD
100
AcDbDictionary
280
     1
281
     1
  3
ADSK_XREC_LAYER_RECONCILED
360
B8B
  0
DICTIONARY
  5
B8C
330
BE
100
AcDbDictionary
280
     1
281
     1
  3
ADSK_XREC_LAYER_RECONCILED
360
B8D
  0
DICTIONARY
  5
B8E
330
BF
100
AcDbDictionary
280
     1
281
     1
  3
ADSK_XREC_LAYER_RECONCILED
360
B8F
  0
DICTIONARY
  5
B90
330
C0
100
AcDbDictionary
280
     1
281
     1
  3
ADSK_XREC_LAYER_RECONCILED
360
B91
  0
DICTIONARY
  5
ABC
330
87F
100
AcDbDictionary
280
     1
281
     1
  3
ACAD_SORTENTS
360
ABD
  0
DICTIONARY
  5
890
330
88F
100
AcDbDictionary
280
     1
281
     1
  3
ASDK_XREC_ANNOTATION_SCALE_INFO
360
891
  0
XRECORD
  5
87D
102
{ACAD_REACTORS
330
C
102
}
330
C
100
AcDbXrecord
280
     1
300
ACDLT
300
2014
300
ACDLT_F_S
  0
DICTIONARY
  5
860
102
{ACAD_REACTORS
330
C
102
}
330
C
100
AcDbDictionary
281
     1
  0
DICTIONARY
  5
879
102
{ACAD_REACTORS
330
C
102
}
330
C
100
AcDbDictionary
281
     1
  3
Metric50
350
87A
  0
DICTIONARY
  5
D
102
{ACAD_REACTORS
330
C
102
}
330
C
100
AcDbDictionary
281
     1
  0
DICTIONARY
  5
1A
102
{ACAD_REACTORS
330
C
102
}
330
C
100
AcDbDictionary
281
     1
  3
Model
350
22
  3
レイアウト1
350
880
  0
DICTIONARY
  5
82E
102
{ACAD_REACTORS
330
C
102
}
330
C
100
AcDbDictionary
281
     1
  3
ByBlock
350
837
  3
ByLayer
350
82F
  3
Global
350
83F
  0
DICTIONARY
  5
875
102
{ACAD_REACTORS
330
C
102
}
330
C
100
AcDbDictionary
281
     1
  3
Standard
350
876
  0
DICTIONARY
  5
17
102
{ACAD_REACTORS
330
C
102
}
330
C
100
AcDbDictionary
281
     1
  3
Standard
350
18
  0
DICTIONARY
  5
19
102
{ACAD_REACTORS
330
C
102
}
330
C
100
AcDbDictionary
281
     1
  0
ACDBDICTIONARYWDFLT
  5
E
102
{ACAD_REACTORS
330
C
102
}
330
C
100
AcDbDictionary
281
     1
  3
Normal
350
F
100
AcDbDictionaryWithDefault
340
F
  0
DICTIONARY
  5
863
102
{ACAD_REACTORS
330
C
102
}
330
C
100
AcDbDictionary
281
     1
  3
A0
350
864
  3
A1
350
865
  3
A2
350
866
  3
A3
350
867
  3
A4
350
868
  3
A5
350
869
  3
A6
350
86A
  3
A7
350
86B
  3
A8
350
86C
  3
A9
350
86D
  3
B0
350
86E
  3
B1
350
86F
  3
B2
350
870
  3
B3
350
871
  3
B4
350
872
  3
B5
350
873
  3
B6
350
874
  0
DICTIONARY
  5
877
102
{ACAD_REACTORS
330
C
102
}
330
C
100
AcDbDictionary
281
     1
  3
Metric50
350
878
  0
DICTIONARY
  5
861
102
{ACAD_REACTORS
330
C
102
}
330
C
100
AcDbDictionary
281
     1
  3
Standard
350
862
  0
DICTIONARY
  5
847
102
{ACAD_REACTORS
330
C
102
}
330
C
100
AcDbDictionary
281
     1
  3
2dWireframe
350
84D
  3
Basic
350
84C
  3
Brighten
350
853
  3
ColorChange
350
857
  3
Conceptual
350
850
  3
Dim
350
852
  3
EdgeColorOff
350
85F
  3
Facepattern
350
856
  3
Flat
350
848
  3
FlatWithEdges
350
849
  3
Gouraud
350
84A
  3
GouraudWithEdges
350
84B
  3
Hidden
350
84F
  3
JitterOff
350
85D
  3
Linepattern
350
855
  3
OverhangOff
350
85E
  3
Realistic
350
851
  3
Shaded
350
85C
  3
Shaded with edges
350
85B
  3
Shades of Gray
350
858
  3
Sketchy
350
859
  3
Thicken
350
854
  3
Wireframe
350
84E
  3
X-Ray
350
85A
  0
XRECORD
  5
149A
102
{ACAD_REACTORS
330
C
102
}
330
C
100
AcDbXrecord
280
     1
 90
        1
330
862
  0
DICTIONARY
  5
AEA
102
{ACAD_REACTORS
330
C
102
}
330
C
100
AcDbDictionary
281
     1
  3
CANNOSCALE
350
AF0
  3
CMLEADERSTYLE
350
AEC
  3
CTABLESTYLE
350
AEB
  3
CVIEWDETAILSTYLE
350
AED
  3
CVIEWSECTIONSTYLE
350
AEE
  3
LAYEREVAL
350
AF2
  3
LAYERNOTIFY
350
AF3
  3
LIGHTINGUNITS
350
AF1
  3
MSLTSCALE
350
AEF
  0
DICTIONARY
  5
887
102
{ACAD_REACTORS
330
886
102
}
330
886
100
AcDbDictionary
281
     1
  0
XRECORD
  5
B7F
102
{ACAD_REACTORS
330
B7E
102
}
330
B7E
100
AcDbXrecord
280
     1
290
     1
  0
XRECORD
  5
B81
102
{ACAD_REACTORS
330
B80
102
}
330
B80
100
AcDbXrecord
280
     1
290
     1
  0
XRECORD
  5
B83
102
{ACAD_REACTORS
330
B82
102
}
330
B82
100
AcDbXrecord
280
     1
290
     1
  0
XRECORD
  5
B85
102
{ACAD_REACTORS
330
B84
102
}
330
B84
100
AcDbXrecord
280
     1
290
     1
  0
XRECORD
  5
B87
102
{ACAD_REACTORS
330
B86
102
}
330
B86
100
AcDbXrecord
280
     1
290
     1
  0
XRECORD
  5
B89
102
{ACAD_REACTORS
330
B88
102
}
330
B88
100
AcDbXrecord
280
     1
290
     1
  0
XRECORD
  5
B8B
102
{ACAD_REACTORS
330
B8A
102
}
330
B8A
100
AcDbXrecord
280
     1
290
     1
  0
XRECORD
  5
B8D
102
{ACAD_REACTORS
330
B8C
102
}
330
B8C
100
AcDbXrecord
280
     1
290
     1
  0
XRECORD
  5
B8F
102
{ACAD_REACTORS
330
B8E
102
}
330
B8E
100
AcDbXrecord
280
     1
290
     1
  0
XRECORD
  5
B91
102
{ACAD_REACTORS
330
B90
102
}
330
B90
100
AcDbXrecord
280
     1
290
     1
  0
SORTENTSTABLE
  5
ABD
102
{ACAD_REACTORS
330
ABC
102
}
330
ABC
100
AcDbSortentsTable
330
87F
331
12F7
  5
12F8
331
12F3
  5
12F4
331
1337
  5
1338
331
13AD
  5
13AF
331
1333
  5
1334
331
136E
  5
136F
331
13A9
  5
13AB
331
132F
  5
1330
331
132B
  5
132C
331
136A
  5
136B
331
13A5
  5
13A7
331
1294
  5
1294
331
12CF
  5
12D0
331
13A1
  5
13A3
331
1290
  5
1290
331
128C
  5
128C
331
12CB
  5
12CC
331
125D
  5
125D
331
1259
  5
1259
331
1288
  5
1288
331
12EF
  5
12F0
331
12EB
  5
12EC
331
12E7
  5
12E8
331
12E3
  5
12E4
331
1327
  5
1328
331
1366
  5
1367
331
139D
  5
139F
331
1323
  5
1324
331
1362
  5
1363
331
135E
  5
135F
331
1399
  5
139B
331
12C7
  5
12C8
331
131F
  5
1320
331
131B
  5
131C
331
135A
  5
135B
331
1395
  5
1397
331
1255
  5
1255
331
1284
  5
1284
331
12C3
  5
12C4
331
12BF
  5
12C0
331
1391
  5
1393
331
1251
  5
1251
331
1280
  5
1280
331
127C
  5
127C
331
12BB
  5
12BC
331
124D
  5
124D
331
1249
  5
1249
331
1278
  5
1278
331
12DF
  5
12E0
331
12DB
  5
12DC
331
12D7
  5
12D8
331
12D3
  5
12D4
331
1317
  5
1318
331
1356
  5
1357
331
138D
  5
138F
331
1313
  5
1314
331
1352
  5
1353
331
134E
  5
134F
331
1389
  5
138B
331
12B7
  5
12B8
331
130F
  5
1310
331
130B
  5
130C
331
134A
  5
134B
331
1385
  5
1386
331
1245
  5
1245
331
1274
  5
1274
331
12B3
  5
12B4
331
12AF
  5
12B0
331
1381
  5
1382
331
1270
  5
1270
331
126C
  5
126C
331
12AB
  5
12AC
331
1268
  5
1268
331
1307
  5
1308
331
1346
  5
1347
331
1303
  5
1304
331
1342
  5
1343
331
137D
  5
137E
331
133E
  5
133F
331
1379
  5
137A
331
12A7
  5
12A8
331
12FF
  5
1300
331
12FB
  5
12FC
331
133A
  5
133B
331
1375
  5
1376
331
13B4
  5
141F
331
1264
  5
1264
331
12A3
  5
12A4
331
129F
  5
12A0
331
1371
  5
1372
331
1260
  5
1260
331
13B0
  5
13B2
331
129B
  5
129C
331
12F6
  5
12F7
331
12F2
  5
12F3
331
1336
  5
1337
331
13AC
  5
13AE
331
1332
  5
1333
331
132E
  5
132F
331
136D
  5
136E
331
13A8
  5
13AA
331
1297
  5
1298
331
132A
  5
132B
331
1369
  5
136A
331
13A4
  5
13A6
331
1293
  5
1293
331
128F
  5
128F
331
12CE
  5
12CF
331
13A0
  5
13A2
331
128B
  5
128B
331
12CA
  5
12CB
331
125C
  5
125C
331
1258
  5
1258
331
12EE
  5
12EF
331
12EA
  5
12EB
331
12E6
  5
12E7
331
12E2
  5
12E3
331
1326
  5
1327
331
1365
  5
1366
331
1361
  5
1362
331
139C
  5
139E
331
1322
  5
1323
331
135D
  5
135E
331
1398
  5
139A
331
1287
  5
1287
331
12C6
  5
12C7
331
131E
  5
131F
331
131A
  5
131B
331
1359
  5
135A
331
12C2
  5
12C3
331
1394
  5
1396
331
1254
  5
1254
331
1283
  5
1283
331
12BE
  5
12BF
331
1390
  5
1392
331
1250
  5
1250
331
127F
  5
127F
331
127B
  5
127B
331
12BA
  5
12BB
331
124C
  5
124C
331
1248
  5
1248
331
12DE
  5
12DF
331
12DA
  5
12DB
331
12D6
  5
12D7
331
12D2
  5
12D3
331
1316
  5
1317
331
1355
  5
1356
331
138C
  5
138E
331
1312
  5
1313
331
1351
  5
1352
331
134D
  5
134E
331
1388
  5
138A
331
1277
  5
1277
331
12B6
  5
12B7
331
130E
  5
130F
331
130A
  5
130B
331
1349
  5
134A
331
1384
  5
1385
331
1244
  5
1244
331
1273
  5
1273
331
12B2
  5
12B3
331
12AE
  5
12AF
331
1380
  5
1381
331
126F
  5
126F
331
126B
  5
126B
331
12AA
  5
12AB
331
1306
  5
1307
331
1345
  5
1346
331
137C
  5
137D
331
1302
  5
1303
331
1341
  5
1342
331
133D
  5
133E
331
1378
  5
1379
331
1267
  5
1267
331
12A6
  5
12A7
331
12FE
  5
12FF
331
12FA
  5
12FB
331
1339
  5
133A
331
1374
  5
1375
331
13B3
  5
13B5
331
1263
  5
1263
331
12A2
  5
12A3
331
129E
  5
129F
331
1370
  5
1371
331
129A
  5
129B
331
12F5
  5
12F6
331
12F1
  5
12F2
331
13AF
  5
13B1
331
1335
  5
1336
331
13AB
  5
13AD
331
1331
  5
1332
331
132D
  5
132E
331
136C
  5
136D
331
13A7
  5
13A9
331
1296
  5
1296
331
1329
  5
132A
331
1368
  5
1369
331
13A3
  5
13A5
331
1292
  5
1292
331
128E
  5
128E
331
12CD
  5
12CE
331
125F
  5
125F
331
125B
  5
125B
331
128A
  5
128A
331
12C9
  5
12CA
331
12ED
  5
12EE
331
12E9
  5
12EA
331
12E5
  5
12E6
331
12E1
  5
12E2
331
1325
  5
1326
331
1364
  5
1365
331
139F
  5
13A1
331
1360
  5
1361
331
139B
  5
139D
331
1321
  5
1322
331
131D
  5
131E
331
135C
  5
135D
331
1397
  5
1399
331
1257
  5
1257
331
1286
  5
1286
331
12C5
  5
12C6
331
1319
  5
131A
331
1358
  5
1359
331
12C1
  5
12C2
331
1393
  5
1395
331
1253
  5
1253
331
1282
  5
1282
331
127E
  5
127E
331
12BD
  5
12BE
331
124F
  5
124F
331
127A
  5
127A
331
12B9
  5
12BA
331
124B
  5
124B
331
12DD
  5
12DE
331
12D9
  5
12DA
331
12D5
  5
12D6
331
12D1
  5
12D2
331
1315
  5
1316
331
1354
  5
1355
331
138F
  5
1391
331
1350
  5
1351
331
138B
  5
138D
331
1311
  5
1312
331
134C
  5
134D
331
1387
  5
1389
331
1247
  5
1247
331
1276
  5
1276
331
12B5
  5
12B6
331
130D
  5
130E
331
1309
  5
130A
331
1348
  5
1349
331
12B1
  5
12B2
331
1383
  5
1384
331
1272
  5
1272
331
12AD
  5
12AE
331
126E
  5
126E
331
126A
  5
126A
331
12A9
  5
12AA
331
AAB
  5
ABB
331
1305
  5
1306
331
1344
  5
1345
331
137F
  5
1380
331
137B
  5
137C
331
1301
  5
1302
331
1340
  5
1341
331
133C
  5
133D
331
1377
  5
1378
331
88F
  5
88F
331
1266
  5
1266
331
12A5
  5
12A6
331
12FD
  5
12FE
331
12F9
  5
12FA
331
1338
  5
1339
331
1373
  5
1374
331
13B2
  5
13B4
331
1262
  5
1262
331
12A1
  5
12A2
331
129D
  5
129E
331
1299
  5
129A
331
12F4
  5
12F5
331
12F0
  5
12F1
331
13AE
  5
13B0
331
1334
  5
1335
331
136F
  5
1370
331
13AA
  5
13AC
331
1330
  5
1331
331
132C
  5
132D
331
136B
  5
136C
331
13A6
  5
13A8
331
1295
  5
1295
331
1328
  5
1329
331
13A2
  5
13A4
331
1291
  5
1291
331
128D
  5
128D
331
12CC
  5
12CD
331
125E
  5
125E
331
125A
  5
125A
331
1289
  5
1289
331
12C8
  5
12C9
331
12EC
  5
12ED
331
12E8
  5
12E9
331
12E4
  5
12E5
331
12E0
  5
12E1
331
1367
  5
1368
331
139E
  5
13A0
331
1324
  5
1325
331
1363
  5
1364
331
135F
  5
1360
331
139A
  5
139C
331
1320
  5
1321
331
131C
  5
131D
331
135B
  5
135C
331
1396
  5
1398
331
1256
  5
1256
331
1285
  5
1285
331
12C4
  5
12C5
331
1318
  5
1319
331
12C0
  5
12C1
331
1392
  5
1394
331
1252
  5
1252
331
1281
  5
1281
331
127D
  5
127D
331
12BC
  5
12BD
331
124E
  5
124E
331
124A
  5
124A
331
1279
  5
1279
331
12B8
  5
12B9
331
12DC
  5
12DD
331
12D8
  5
12D9
331
12D4
  5
12D5
331
12D0
  5
12D1
331
1357
  5
1358
331
1314
  5
1315
331
1353
  5
1354
331
138E
  5
1390
331
134F
  5
1350
331
138A
  5
138C
331
1310
  5
1311
331
130C
  5
130D
331
134B
  5
134C
331
1386
  5
1388
331
1246
  5
1246
331
1275
  5
1275
331
12B4
  5
12B5
331
1308
  5
1309
331
12B0
  5
12B1
331
1382
  5
1383
331
1271
  5
1271
331
126D
  5
126D
331
12AC
  5
12AD
331
1269
  5
1269
331
12A8
  5
12A9
331
AAA
  5
AAB
331
1347
  5
1348
331
1304
  5
1305
331
1343
  5
1344
331
137E
  5
137F
331
133F
  5
1340
331
137A
  5
137B
331
1300
  5
1301
331
133B
  5
133C
331
1376
  5
1377
331
13B5
  5
1420
331
1265
  5
1265
331
12A4
  5
12A5
331
12FC
  5
12FD
331
12F8
  5
12F9
331
12A0
  5
12A1
331
1372
  5
1373
331
1261
  5
1261
331
13B1
  5
13B3
331
129C
  5
129D
331
1298
  5
1299
  0
XRECORD
  5
891
102
{ACAD_REACTORS
330
890
102
}
330
890
100
AcDbXrecord
280
     1
 90
        1
340
864
  0
ACDBDETAILVIEWSTYLE
  5
87A
102
{ACAD_XDICTIONARY
360
14CD
102
}
102
{ACAD_REACTORS
330
879
102
}
330
879
100
AcDbModelDocViewStyle
 70
     0
  3
Metric50
290
     0
100
AcDbDetailViewStyle
 70
     0
 71
     0
 90
        3
 71
     1
340
11
 62
   256
 40
5.0
340
0
 62
   256
 40
5.0
300

 40
0.0
280
     1
 71
     2
340
16
 90
       25
 62
   256
 71
     3
340
11
 62
   256
 40
5.0
 90
        0
 40
15.0
 90
        1
300
%<\AcVar ViewDetailId>% (%<\AcVar ViewScale \f "%sn">%)
 71
     4
340
16
 90
       25
 62
   256
340
16
 90
       25
 62
   256
280
     0
  0
LAYOUT
  5
22
102
{ACAD_REACTORS
330
1A
102
}
330
1A
100
AcDbPlotSettings
  1

  2
Canon BJC-465J
  4
A4
  6

 40
4.250972270965576
 41
7.849302291870117
 42
4.250961303710936
 43
3.82763671875
 44
209.9733276367186
 45
296.9683227539062
 46
0.0
 47
0.0
 48
0.0
 49
0.0
140
0.0
141
0.0
142
1.0
143
1.0
 70
 11952
 72
     1
 73
     1
 74
     0
  7

 75
     0
147
1.0
 76
     0
 77
     2
 78
   300
148
46.97275063947086
149
-4.306468635547048
100
AcDbLayout
  1
Model
 70
     1
 71
     0
 10
0.0
 20
0.0
 11
12.0
 21
9.0
 12
0.0
 22
0.0
 32
0.0
 14
0.0
 24
0.0
 34
0.0
 15
0.0
 25
0.0
 35
0.0
146
0.0
 13
0.0
 23
0.0
 33
0.0
 16
1.0
 26
0.0
 36
0.0
 17
0.0
 27
1.0
 37
0.0
 76
     0
330
1F
331
829
  0
LAYOUT
  5
880
102
{ACAD_XDICTIONARY
360
C8B
102
}
102
{ACAD_REACTORS
330
1A
102
}
330
1A
100
AcDbPlotSettings
  1

  2
Canon Inkjet iP4600 series
  4
A4
  6

 40
4.180416584014891
 41
5.8314208984375
 42
4.180404663085936
 43
3.757080078125
 44
209.9733276367186
 45
296.9683227539062
 46
0.0
 47
0.0
 48
0.0
 49
0.0
140
0.0
141
0.0
142
1.0
143
1.0
 70
   688
 72
     1
 73
     1
 74
     5
  7

 75
    16
147
1.0
 76
     0
 77
     2
 78
   300
148
0.0
149
0.0
100
AcDbLayout
  1
レイアウト1
 70
     1
 71
     1
 10
-3.757080078125
 20
-4.180416584014891
 11
293.2112426757813
 21
205.7929110527039
 12
0.0
 22
0.0
 32
0.0
 14
90.59978389308492
 24
40.82851502783092
 34
-0.0000000349181948
 15
199.7153417175178
 25
123.0576020036956
 35
0.0000000814935747
146
0.0
 13
0.0
 23
0.0
 33
0.0
 16
1.0
 26
0.0
 36
0.0
 17
0.0
 27
1.0
 37
0.0
 76
     0
330
87F
331
88F
1001
ACAD_PSEXT
1000
Canon Inkjet iP4600 series
1000
Canon Inkjet iP4600 series
1000
USB002
1000

1070
     0
  0
MATERIAL
  5
837
102
{ACAD_XDICTIONARY
360
838
102
}
102
{ACAD_REACTORS
330
82E
102
}
330
82E
100
AcDbMaterial
  1
ByBlock
 72
     0
 43
0.0008202099737533
 43
0.0
 43
0.0
 43
0.0
 43
0.0
 43
0.0008202099737533
 43
0.0
 43
0.0
 43
0.0
 43
0.0
 43
1.0
 43
0.0
 43
0.0
 43
0.0
 43
0.0
 43
1.0
 77
     0
 47
0.0008202099737533
 47
0.0
 47
0.0
 47
0.0
 47
0.0
 47
0.0008202099737533
 47
0.0
 47
0.0
 47
0.0
 47
0.0
 47
1.0
 47
0.0
 47
0.0
 47
0.0
 47
0.0
 47
1.0
171
     0
 49
0.0008202099737533
 49
0.0
 49
0.0
 49
0.0
 49
0.0
 49
0.0008202099737533
 49
0.0
 49
0.0
 49
0.0
 49
0.0
 49
1.0
 49
0.0
 49
0.0
 49
0.0
 49
0.0
 49
1.0
175
     0
142
0.0008202099737533
142
0.0
142
0.0
142
0.0
142
0.0
142
0.0008202099737533
142
0.0
142
0.0
142
0.0
142
0.0
142
1.0
142
0.0
142
0.0
142
0.0
142
0.0
142
1.0
179
     0
144
0.0008202099737533
144
0.0
144
0.0
144
0.0
144
0.0
144
0.0008202099737533
144
0.0
144
0.0
144
0.0
144
0.0
144
1.0
144
0.0
144
0.0
144
0.0
144
0.0
144
1.0
147
0.0008202099737533
147
0.0
147
0.0
147
0.0
147
0.0
147
0.0008202099737533
147
0.0
147
0.0
147
0.0
147
0.0
147
1.0
147
0.0
147
0.0
147
0.0
147
0.0
147
1.0
  0
MATERIAL
  5
82F
102
{ACAD_XDICTIONARY
360
830
102
}
102
{ACAD_REACTORS
330
82E
102
}
330
82E
100
AcDbMaterial
  1
ByLayer
 72
     0
 43
0.0008202099737533
 43
0.0
 43
0.0
 43
0.0
 43
0.0
 43
0.0008202099737533
 43
0.0
 43
0.0
 43
0.0
 43
0.0
 43
1.0
 43
0.0
 43
0.0
 43
0.0
 43
0.0
 43
1.0
 77
     0
 47
0.0008202099737533
 47
0.0
 47
0.0
 47
0.0
 47
0.0
 47
0.0008202099737533
 47
0.0
 47
0.0
 47
0.0
 47
0.0
 47
1.0
 47
0.0
 47
0.0
 47
0.0
 47
0.0
 47
1.0
171
     0
 49
0.0008202099737533
 49
0.0
 49
0.0
 49
0.0
 49
0.0
 49
0.0008202099737533
 49
0.0
 49
0.0
 49
0.0
 49
0.0
 49
1.0
 49
0.0
 49
0.0
 49
0.0
 49
0.0
 49
1.0
175
     0
142
0.0008202099737533
142
0.0
142
0.0
142
0.0
142
0.0
142
0.0008202099737533
142
0.0
142
0.0
142
0.0
142
0.0
142
1.0
142
0.0
142
0.0
142
0.0
142
0.0
142
1.0
179
     0
144
0.0008202099737533
144
0.0
144
0.0
144
0.0
144
0.0
144
0.0008202099737533
144
0.0
144
0.0
144
0.0
144
0.0
144
1.0
144
0.0
144
0.0
144
0.0
144
0.0
144
1.0
147
0.0008202099737533
147
0.0
147
0.0
147
0.0
147
0.0
147
0.0008202099737533
147
0.0
147
0.0
147
0.0
147
0.0
147
1.0
147
0.0
147
0.0
147
0.0
147
0.0
147
1.0
  0
MATERIAL
  5
83F
102
{ACAD_XDICTIONARY
360
840
102
}
102
{ACAD_REACTORS
330
82E
102
}
330
82E
100
AcDbMaterial
  1
Global
 72
     0
 43
0.0008202099737533
 43
0.0
 43
0.0
 43
0.0
 43
0.0
 43
0.0008202099737533
 43
0.0
 43
0.0
 43
0.0
 43
0.0
 43
1.0
 43
0.0
 43
0.0
 43
0.0
 43
0.0
 43
1.0
 77
     0
 47
0.0008202099737533
 47
0.0
 47
0.0
 47
0.0
 47
0.0
 47
0.0008202099737533
 47
0.0
 47
0.0
 47
0.0
 47
0.0
 47
1.0
 47
0.0
 47
0.0
 47
0.0
 47
0.0
 47
1.0
171
     0
 49
0.0008202099737533
 49
0.0
 49
0.0
 49
0.0
 49
0.0
 49
0.0008202099737533
 49
0.0
 49
0.0
 49
0.0
 49
0.0
 49
1.0
 49
0.0
 49
0.0
 49
0.0
 49
0.0
 49
1.0
175
     0
142
0.0008202099737533
142
0.0
142
0.0
142
0.0
142
0.0
142
0.0008202099737533
142
0.0
142
0.0
142
0.0
142
0.0
142
1.0
142
0.0
142
0.0
142
0.0
142
0.0
142
1.0
179
     0
144
0.0008202099737533
144
0.0
144
0.0
144
0.0
144
0.0
144
0.0008202099737533
144
0.0
144
0.0
144
0.0
144
0.0
144
1.0
144
0.0
144
0.0
144
0.0
144
0.0
144
1.0
147
0.0008202099737533
147
0.0
147
0.0
147
0.0
147
0.0
147
0.0008202099737533
147
0.0
147
0.0
147
0.0
147
0.0
147
1.0
147
0.0
147
0.0
147
0.0
147
0.0
147
1.0
  0
MLEADERSTYLE
  5
876
102
{ACAD_REACTORS
330
875
102
}
330
875
100
AcDbMLeaderStyle
179
     2
170
     2
171
     1
172
     0
 90
        2
 40
0.0
 41
0.0
173
     1
 91
-1056964608
340
14
 92
       -2
290
     1
 42
2.0
291
     1
 43
0.36
  3
Standard
 44
4.0
300

342
11
174
     1
178
     6
175
     1
176
     0
 93
-1056964608
 45
4.0
292
     0
297
     0
 46
4.0
 94
-1056964608
 47
1.0
 49
1.0
140
1.0
293
     1
141
0.0
294
     1
177
     0
142
1.0
295
     0
296
     0
143
0.125
271
     0
272
     9
273
     9
  0
MLINESTYLE
  5
18
102
{ACAD_REACTORS
330
17
102
}
330
17
100
AcDbMlineStyle
  2
STANDARD
 70
     0
  3

 62
   256
 51
90.0
 52
90.0
 71
     2
 49
0.5
 62
   256
  6
BYLAYER
 49
-0.5
 62
   256
  6
BYLAYER
  0
ACDBPLACEHOLDER
  5
F
102
{ACAD_REACTORS
330
E
102
}
330
E
  0
SCALE
  5
864
102
{ACAD_REACTORS
330
863
102
}
330
863
100
AcDbScale
 70
     0
300
1:1
140
1.0
141
1.0
290
     1
  0
SCALE
  5
865
102
{ACAD_REACTORS
330
863
102
}
330
863
100
AcDbScale
 70
     0
300
1:2
140
1.0
141
2.0
290
     0
  0
SCALE
  5
866
102
{ACAD_REACTORS
330
863
102
}
330
863
100
AcDbScale
 70
     0
300
1:4
140
1.0
141
4.0
290
     0
  0
SCALE
  5
867
102
{ACAD_REACTORS
330
863
102
}
330
863
100
AcDbScale
 70
     0
300
1:5
140
1.0
141
5.0
290
     0
  0
SCALE
  5
868
102
{ACAD_REACTORS
330
863
102
}
330
863
100
AcDbScale
 70
     0
300
1:8
140
1.0
141
8.0
290
     0
  0
SCALE
  5
869
102
{ACAD_REACTORS
330
863
102
}
330
863
100
AcDbScale
 70
     0
300
1:10
140
1.0
141
10.0
290
     0
  0
SCALE
  5
86A
102
{ACAD_REACTORS
330
863
102
}
330
863
100
AcDbScale
 70
     0
300
1:16
140
1.0
141
16.0
290
     0
  0
SCALE
  5
86B
102
{ACAD_REACTORS
330
863
102
}
330
863
100
AcDbScale
 70
     0
300
1:20
140
1.0
141
20.0
290
     0
  0
SCALE
  5
86C
102
{ACAD_REACTORS
330
863
102
}
330
863
100
AcDbScale
 70
     0
300
1:30
140
1.0
141
30.0
290
     0
  0
SCALE
  5
86D
102
{ACAD_REACTORS
330
863
102
}
330
863
100
AcDbScale
 70
     0
300
1:40
140
1.0
141
40.0
290
     0
  0
SCALE
  5
86E
102
{ACAD_REACTORS
330
863
102
}
330
863
100
AcDbScale
 70
     0
300
1:50
140
1.0
141
50.0
290
     0
  0
SCALE
  5
86F
102
{ACAD_REACTORS
330
863
102
}
330
863
100
AcDbScale
 70
     0
300
1:100
140
1.0
141
100.0
290
     0
  0
SCALE
  5
870
102
{ACAD_REACTORS
330
863
102
}
330
863
100
AcDbScale
 70
     0
300
2:1
140
2.0
141
1.0
290
     0
  0
SCALE
  5
871
102
{ACAD_REACTORS
330
863
102
}
330
863
100
AcDbScale
 70
     0
300
4:1
140
4.0
141
1.0
290
     0
  0
SCALE
  5
872
102
{ACAD_REACTORS
330
863
102
}
330
863
100
AcDbScale
 70
     0
300
8:1
140
8.0
141
1.0
290
     0
  0
SCALE
  5
873
102
{ACAD_REACTORS
330
863
102
}
330
863
100
AcDbScale
 70
     0
300
10:1
140
10.0
141
1.0
290
     0
  0
SCALE
  5
874
102
{ACAD_REACTORS
330
863
102
}
330
863
100
AcDbScale
 70
     0
300
100:1
140
100.0
141
1.0
290
     0
  0
ACDBSECTIONVIEWSTYLE
  5
878
102
{ACAD_XDICTIONARY
360
14CB
102
}
102
{ACAD_REACTORS
330
877
102
}
330
877
100
AcDbModelDocViewStyle
 70
     0
  3
Metric50
290
     0
100
AcDbSectionViewStyle
 70
     0
 71
     0
 90
      102
 71
     1
340
11
 62
   256
 40
5.0
340
0
340
0
 62
   256
 40
5.0
300
I, O, Q, S, X, Z
 40
10.0
 90
        0
 40
2.5
 90
        0
 71
     2
340
16
 90
       25
 62
   256
340
16
 90
       50
 62
   256
 40
5.0
 40
2.5
 40
5.0
 71
     3
340
11
 62
   256
 40
5.0
 90
        0
 40
15.0
 90
        1
300
%<\AcVar ViewSectionStartId>%-%<\AcVar ViewSectionEndId>% (%<\AcVar ViewScale \f "%sn">%)
 71
     4
 62
   256
 62
   257
300
ANSI31
 40
1.0
 90
        0
290
     0
290
     0
 90
        6
 40
0.0
 40
1.570796326794896
 40
0.2617993877991494
 40
1.308996938995747
 40
-0.2617993877991494
 40
1.832595714594044
  0
TABLESTYLE
  5
862
102
{ACAD_XDICTIONARY
360
AF4
102
}
102
{ACAD_REACTORS
330
861
102
}
330
861
100
AcDbTableStyle
280
     0
  3
Standard
 70
     0
 71
     0
 40
1.5
 41
1.5
280
     0
281
     0
  7
Standard
140
4.5
170
     2
 62
     0
 63
     7
283
     0
 90
      512
 91
        0
  1

274
    -2
284
     1
 64
     0
275
    -2
285
     1
 65
     0
276
    -2
286
     1
 66
     0
277
    -2
287
     1
 67
     0
278
    -2
288
     1
 68
     0
279
    -2
289
     1
 69
     0
  7
Standard
140
6.0
170
     5
 62
     0
 63
     7
283
     0
 90
      512
 91
        0
  1

274
    -2
284
     1
 64
     0
275
    -2
285
     1
 65
     0
276
    -2
286
     1
 66
     0
277
    -2
287
     1
 67
     0
278
    -2
288
     1
 68
     0
279
    -2
289
     1
 69
     0
  7
Standard
140
4.5
170
     5
 62
     0
 63
     7
283
     0
 90
      512
 91
        0
  1

274
    -2
284
     1
 64
     0
275
    -2
285
     1
 65
     0
276
    -2
286
     1
 66
     0
277
    -2
287
     1
 67
     0
278
    -2
288
     1
 68
     0
279
    -2
289
     1
 69
     0
  0
VISUALSTYLE
  5
84D
102
{ACAD_XDICTIONARY
360
14A5
102
}
102
{ACAD_REACTORS
330
847
102
}
330
847
100
AcDbVisualStyle
  2
2dWireframe
 70
     4
177
     2
291
     0
 71
     0
176
     1
 72
     2
176
     1
 73
     0
176
     1
 90
        0
176
     1
 40
0.6
176
     1
 41
30.0
176
     1
 63
     7
421
 16777215
176
     1
 74
     1
176
     1
 91
        4
176
     1
 64
     7
176
     1
 65
   257
176
     1
 75
     1
176
     1
175
     1
176
     1
 42
1.0
176
     1
 92
        0
176
     1
 66
   257
176
     1
 43
1.0
176
     1
 76
     1
176
     1
 77
     6
176
     1
 78
     2
176
     1
 67
     7
176
     1
 79
     5
176
     1
170
     0
176
     1
171
     0
176
     1
290
     0
176
     1
 93
        1
176
     1
 44
0.0
176
     1
173
     0
176
     1
1001
ACAD
1000
AcDbSavedByObjectVersion
1070
     0
  0
VISUALSTYLE
  5
84C
102
{ACAD_XDICTIONARY
360
14A3
102
}
102
{ACAD_REACTORS
330
847
102
}
330
847
100
AcDbVisualStyle
  2
Basic
 70
     7
177
     2
291
     1
 71
     1
176
     1
 72
     0
176
     1
 73
     1
176
     1
 90
        0
176
     1
 40
0.6
176
     1
 41
30.0
176
     1
 63
     7
421
 16777215
176
     1
 74
     0
176
     1
 91
        4
176
     1
 64
     7
176
     1
 65
   257
176
     1
 75
     1
176
     1
175
     1
176
     1
 42
1.0
176
     1
 92
        8
176
     1
 66
     7
176
     1
 43
1.0
176
     1
 76
     1
176
     1
 77
     6
176
     1
 78
     2
176
     1
 67
     7
176
     1
 79
     5
176
     1
170
     0
176
     1
171
     0
176
     1
290
     0
176
     1
 93
        1
176
     1
 44
0.0
176
     1
173
     0
176
     1
1001
ACAD
1000
AcDbSavedByObjectVersion
1070
     0
  0
VISUALSTYLE
  5
853
102
{ACAD_XDICTIONARY
360
14B1
102
}
102
{ACAD_REACTORS
330
847
102
}
330
847
100
AcDbVisualStyle
  2
Brighten
 70
    12
177
     2
291
     1
 71
     2
176
     1
 72
     2
176
     1
 73
     0
176
     1
 90
        0
176
     1
 40
0.6
176
     1
 41
30.0
176
     1
 63
     7
421
 16777215
176
     1
 74
     1
176
     1
 91
        4
176
     1
 64
     7
176
     1
 65
   257
176
     1
 75
     1
176
     1
175
     1
176
     1
 42
1.0
176
     1
 92
        8
176
     1
 66
     7
176
     1
 43
1.0
176
     1
 76
     1
176
     1
 77
     6
176
     1
 78
     2
176
     1
 67
     7
176
     1
 79
     5
176
     1
170
     0
176
     1
171
     0
176
     1
290
     0
176
     1
 93
        1
176
     1
 44
50.0
176
     1
173
     0
176
     1
1001
ACAD
1000
AcDbSavedByObjectVersion
1070
     0
  0
VISUALSTYLE
  5
857
102
{ACAD_XDICTIONARY
360
14B9
102
}
102
{ACAD_REACTORS
330
847
102
}
330
847
100
AcDbVisualStyle
  2
ColorChange
 70
    16
177
     2
291
     1
 71
     2
176
     1
 72
     2
176
     1
 73
     3
176
     1
 90
        0
176
     1
 40
0.6
176
     1
 41
30.0
176
     1
 63
     8
421
  8421504
176
     1
 74
     1
176
     1
 91
        4
176
     1
 64
     7
176
     1
 65
   257
176
     1
 75
     1
176
     1
175
     1
176
     1
 42
1.0
176
     1
 92
        8
176
     1
 66
     8
424
  8421504
176
     1
 43
1.0
176
     1
 76
     1
176
     1
 77
     6
176
     1
 78
     2
176
     1
 67
     7
176
     1
 79
     5
176
     1
170
     0
176
     1
171
     0
176
     1
290
     0
176
     1
 93
        1
176
     1
 44
0.0
176
     1
173
     0
176
     1
1001
ACAD
1000
AcDbSavedByObjectVersion
1070
     0
  0
VISUALSTYLE
  5
850
102
{ACAD_XDICTIONARY
360
14AB
102
}
102
{ACAD_REACTORS
330
847
102
}
330
847
100
AcDbVisualStyle
  2
Conceptual
 70
     9
177
     2
291
     0
 71
     3
176
     1
 72
     2
176
     1
 73
     0
176
     1
 90
        0
176
     1
 40
0.6
176
     1
 41
30.0
176
     1
 63
     7
421
 16777215
176
     1
 74
     2
176
     1
 91
        2
176
     1
 64
     7
176
     1
 65
   257
176
     1
 75
     1
176
     1
175
     1
176
     1
 42
179.0
176
     1
 92
        8
176
     1
 66
     7
176
     1
 43
1.0
176
     1
 76
     1
176
     1
 77
     6
176
     1
 78
     2
176
     1
 67
     7
176
     1
 79
     3
176
     1
170
     0
176
     1
171
     0
176
     1
290
     0
176
     1
 93
        1
176
     1
 44
0.0
176
     1
173
     0
176
     1
1001
ACAD
1000
AcDbSavedByObjectVersion
1070
     0
  0
VISUALSTYLE
  5
852
102
{ACAD_XDICTIONARY
360
14AF
102
}
102
{ACAD_REACTORS
330
847
102
}
330
847
100
AcDbVisualStyle
  2
Dim
 70
    11
177
     2
291
     1
 71
     2
176
     1
 72
     2
176
     1
 73
     0
176
     1
 90
        0
176
     1
 40
0.6
176
     1
 41
30.0
176
     1
 63
     7
421
 16777215
176
     1
 74
     1
176
     1
 91
        4
176
     1
 64
     7
176
     1
 65
   257
176
     1
 75
     1
176
     1
175
     1
176
     1
 42
1.0
176
     1
 92
        8
176
     1
 66
     7
176
     1
 43
1.0
176
     1
 76
     1
176
     1
 77
     6
176
     1
 78
     2
176
     1
 67
     7
176
     1
 79
     5
176
     1
170
     0
176
     1
171
     0
176
     1
290
     0
176
     1
 93
        1
176
     1
 44
-50.0
176
     1
173
     0
176
     1
1001
ACAD
1000
AcDbSavedByObjectVersion
1070
     0
  0
VISUALSTYLE
  5
85F
102
{ACAD_XDICTIONARY
360
14C9
102
}
102
{ACAD_REACTORS
330
847
102
}
330
847
100
AcDbVisualStyle
  2
EdgeColorOff
 70
    22
177
     2
291
     1
 71
     2
176
     0
 72
     2
176
     0
 73
     0
176
     0
 90
        0
176
     0
 40
0.6
176
     0
 41
30.0
176
     0
 63
     7
421
 16777215
176
     0
 74
     1
176
     0
 91
        4
176
     0
 64
     7
176
     0
 65
   257
176
     0
 75
     1
176
     0
175
     1
176
     0
 42
1.0
176
     0
 92
        8
176
     2
 66
     7
176
     0
 43
1.0
176
     0
 76
     1
176
     0
 77
     6
176
     0
 78
     2
176
     0
 67
     7
176
     0
 79
     5
176
     0
170
     0
176
     0
171
     0
176
     0
290
     0
176
     0
 93
        1
176
     0
 44
0.0
176
     0
173
     0
176
     0
1001
ACAD
1000
AcDbSavedByObjectVersion
1070
     0
  0
VISUALSTYLE
  5
856
102
{ACAD_XDICTIONARY
360
14B7
102
}
102
{ACAD_REACTORS
330
847
102
}
330
847
100
AcDbVisualStyle
  2
Facepattern
 70
    15
177
     2
291
     1
 71
     2
176
     1
 72
     2
176
     1
 73
     0
176
     1
 90
        0
176
     1
 40
0.6
176
     1
 41
30.0
176
     1
 63
     7
421
 16777215
176
     1
 74
     1
176
     1
 91
        4
176
     1
 64
     7
176
     1
 65
   257
176
     1
 75
     1
176
     1
175
     1
176
     1
 42
1.0
176
     1
 92
        8
176
     1
 66
     7
176
     1
 43
1.0
176
     1
 76
     1
176
     1
 77
     6
176
     1
 78
     2
176
     1
 67
     7
176
     1
 79
     5
176
     1
170
     0
176
     1
171
     0
176
     1
290
     0
176
     1
 93
        1
176
     1
 44
0.0
176
     1
173
     0
176
     1
1001
ACAD
1000
AcDbSavedByObjectVersion
1070
     0
  0
VISUALSTYLE
  5
848
102
{ACAD_XDICTIONARY
360
149B
102
}
102
{ACAD_REACTORS
330
847
102
}
330
847
100
AcDbVisualStyle
  2
Flat
 70
     0
177
     2
291
     1
 71
     2
176
     1
 72
     1
176
     1
 73
     1
176
     1
 90
        2
176
     1
 40
0.6
176
     1
 41
30.0
176
     1
 63
     7
421
 16777215
176
     1
 74
     0
176
     1
 91
        0
176
     1
 64
     7
176
     1
 65
   257
176
     1
 75
     1
176
     1
175
     1
176
     1
 42
1.0
176
     1
 92
        8
176
     1
 66
     7
176
     1
 43
1.0
176
     1
 76
     1
176
     1
 77
     6
176
     1
 78
     2
176
     1
 67
     7
176
     1
 79
     5
176
     1
170
     0
176
     1
171
     0
176
     1
290
     0
176
     1
 93
       13
176
     1
 44
0.0
176
     1
173
     0
176
     1
1001
ACAD
1000
AcDbSavedByObjectVersion
1070
     0
  0
VISUALSTYLE
  5
849
102
{ACAD_XDICTIONARY
360
149D
102
}
102
{ACAD_REACTORS
330
847
102
}
330
847
100
AcDbVisualStyle
  2
FlatWithEdges
 70
     1
177
     2
291
     1
 71
     2
176
     1
 72
     1
176
     1
 73
     1
176
     1
 90
        2
176
     1
 40
0.6
176
     1
 41
30.0
176
     1
 63
     7
421
 16777215
176
     1
 74
     1
176
     1
 91
        0
176
     1
 64
     7
176
     1
 65
   257
176
     1
 75
     1
176
     1
175
     1
176
     1
 42
1.0
176
     1
 92
        0
176
     1
 66
   257
176
     1
 43
1.0
176
     1
 76
     1
176
     1
 77
     6
176
     1
 78
     2
176
     1
 67
     7
176
     1
 79
     5
176
     1
170
     0
176
     1
171
     0
176
     1
290
     0
176
     1
 93
       13
176
     1
 44
0.0
176
     1
173
     0
176
     1
1001
ACAD
1000
AcDbSavedByObjectVersion
1070
     0
  0
VISUALSTYLE
  5
84A
102
{ACAD_XDICTIONARY
360
149F
102
}
102
{ACAD_REACTORS
330
847
102
}
330
847
100
AcDbVisualStyle
  2
Gouraud
 70
     2
177
     2
291
     1
 71
     2
176
     1
 72
     2
176
     1
 73
     1
176
     1
 90
        2
176
     1
 40
0.6
176
     1
 41
30.0
176
     1
 63
     7
421
 16777215
176
     1
 74
     0
176
     1
 91
        0
176
     1
 64
     7
176
     1
 65
   257
176
     1
 75
     1
176
     1
175
     1
176
     1
 42
1.0
176
     1
 92
        0
176
     1
 66
     7
176
     1
 43
1.0
176
     1
 76
     1
176
     1
 77
     6
176
     1
 78
     2
176
     1
 67
     7
176
     1
 79
     5
176
     1
170
     0
176
     1
171
     0
176
     1
290
     0
176
     1
 93
       13
176
     1
 44
0.0
176
     1
173
     0
176
     1
1001
ACAD
1000
AcDbSavedByObjectVersion
1070
     0
  0
VISUALSTYLE
  5
84B
102
{ACAD_XDICTIONARY
360
14A1
102
}
102
{ACAD_REACTORS
330
847
102
}
330
847
100
AcDbVisualStyle
  2
GouraudWithEdges
 70
     3
177
     2
291
     1
 71
     2
176
     1
 72
     2
176
     1
 73
     1
176
     1
 90
        2
176
     1
 40
0.6
176
     1
 41
30.0
176
     1
 63
     7
421
 16777215
176
     1
 74
     1
176
     1
 91
        0
176
     1
 64
     7
176
     1
 65
   257
176
     1
 75
     1
176
     1
175
     1
176
     1
 42
1.0
176
     1
 92
        0
176
     1
 66
   257
176
     1
 43
1.0
176
     1
 76
     1
176
     1
 77
     6
176
     1
 78
     2
176
     1
 67
     7
176
     1
 79
     5
176
     1
170
     0
176
     1
171
     0
176
     1
290
     0
176
     1
 93
       13
176
     1
 44
0.0
176
     1
173
     0
176
     1
1001
ACAD
1000
AcDbSavedByObjectVersion
1070
     0
  0
VISUALSTYLE
  5
84F
102
{ACAD_XDICTIONARY
360
14A9
102
}
102
{ACAD_REACTORS
330
847
102
}
330
847
100
AcDbVisualStyle
  2
Hidden
 70
     6
177
     2
291
     0
 71
     1
176
     1
 72
     2
176
     1
 73
     2
176
     1
 90
        0
176
     1
 40
0.6
176
     1
 41
30.0
176
     1
 63
     7
421
 16777215
176
     1
 74
     2
176
     1
 91
        2
176
     1
 64
     7
176
     1
 65
   257
176
     1
 75
     2
176
     1
175
     1
176
     1
 42
40.0
176
     1
 92
        0
176
     1
 66
   257
176
     1
 43
1.0
176
     1
 76
     1
176
     1
 77
     6
176
     1
 78
     2
176
     1
 67
     7
176
     1
 79
     3
176
     1
170
     0
176
     1
171
     0
176
     1
290
     0
176
     1
 93
        1
176
     1
 44
0.0
176
     1
173
     0
176
     1
1001
ACAD
1000
AcDbSavedByObjectVersion
1070
     0
  0
VISUALSTYLE
  5
85D
102
{ACAD_XDICTIONARY
360
14C5
102
}
102
{ACAD_REACTORS
330
847
102
}
330
847
100
AcDbVisualStyle
  2
JitterOff
 70
    20
177
     2
291
     1
 71
     2
176
     0
 72
     2
176
     0
 73
     0
176
     0
 90
        0
176
     0
 40
0.6
176
     0
 41
30.0
176
     0
 63
     7
421
 16777215
176
     0
 74
     1
176
     0
 91
        4
176
     0
 64
     7
176
     0
 65
   257
176
     0
 75
     1
176
     0
175
     1
176
     0
 42
1.0
176
     0
 92
       10
176
     2
 66
     7
176
     0
 43
1.0
176
     0
 76
     1
176
     0
 77
     6
176
     0
 78
     2
176
     0
 67
     7
176
     0
 79
     5
176
     0
170
     0
176
     0
171
     0
176
     0
290
     0
176
     0
 93
        1
176
     0
 44
0.0
176
     0
173
     0
176
     0
1001
ACAD
1000
AcDbSavedByObjectVersion
1070
     0
  0
VISUALSTYLE
  5
855
102
{ACAD_XDICTIONARY
360
14B5
102
}
102
{ACAD_REACTORS
330
847
102
}
330
847
100
AcDbVisualStyle
  2
Linepattern
 70
    14
177
     2
291
     1
 71
     2
176
     1
 72
     2
176
     1
 73
     0
176
     1
 90
        0
176
     1
 40
0.6
176
     1
 41
30.0
176
     1
 63
     7
421
 16777215
176
     1
 74
     1
176
     1
 91
        4
176
     1
 64
     7
176
     1
 65
   257
176
     1
 75
     7
176
     1
175
     7
176
     1
 42
1.0
176
     1
 92
        8
176
     1
 66
     7
176
     1
 43
1.0
176
     1
 76
     1
176
     1
 77
     6
176
     1
 78
     2
176
     1
 67
     7
176
     1
 79
     5
176
     1
170
     0
176
     1
171
     0
176
     1
290
     0
176
     1
 93
        1
176
     1
 44
0.0
176
     1
173
     0
176
     1
1001
ACAD
1000
AcDbSavedByObjectVersion
1070
     0
  0
VISUALSTYLE
  5
85E
102
{ACAD_XDICTIONARY
360
14C7
102
}
102
{ACAD_REACTORS
330
847
102
}
330
847
100
AcDbVisualStyle
  2
OverhangOff
 70
    21
177
     2
291
     1
 71
     2
176
     0
 72
     2
176
     0
 73
     0
176
     0
 90
        0
176
     0
 40
0.6
176
     0
 41
30.0
176
     0
 63
     7
421
 16777215
176
     0
 74
     1
176
     0
 91
        4
176
     0
 64
     7
176
     0
 65
   257
176
     0
 75
     1
176
     0
175
     1
176
     0
 42
1.0
176
     0
 92
        9
176
     2
 66
     7
176
     0
 43
1.0
176
     0
 76
     1
176
     0
 77
     6
176
     0
 78
     2
176
     0
 67
     7
176
     0
 79
     5
176
     0
170
     0
176
     0
171
     0
176
     0
290
     0
176
     0
 93
        1
176
     0
 44
0.0
176
     0
173
     0
176
     0
1001
ACAD
1000
AcDbSavedByObjectVersion
1070
     0
  0
VISUALSTYLE
  5
851
102
{ACAD_XDICTIONARY
360
14AD
102
}
102
{ACAD_REACTORS
330
847
102
}
330
847
100
AcDbVisualStyle
  2
Realistic
 70
     8
177
     2
291
     0
 71
     2
176
     1
 72
     2
176
     1
 73
     0
176
     1
 90
        2
176
     1
 40
0.6
176
     1
 41
30.0
176
     1
 63
     7
421
 16777215
176
     1
 74
     0
176
     1
 91
        0
176
     1
 64
     7
176
     1
 65
   257
176
     1
 75
     1
176
     1
175
     1
176
     1
 42
1.0
176
     1
 92
        8
176
     1
 66
   257
176
     1
 43
1.0
176
     1
 76
     1
176
     1
 77
     6
176
     1
 78
     2
176
     1
 67
     7
176
     1
 79
     3
176
     1
170
     0
176
     1
171
     0
176
     1
290
     0
176
     1
 93
       13
176
     1
 44
0.0
176
     1
173
     0
176
     1
1001
ACAD
1000
AcDbSavedByObjectVersion
1070
     0
  0
VISUALSTYLE
  5
85C
102
{ACAD_XDICTIONARY
360
14C3
102
}
102
{ACAD_REACTORS
330
847
102
}
330
847
100
AcDbVisualStyle
  2
Shaded
 70
    27
177
     2
291
     0
 71
     2
176
     1
 72
     2
176
     1
 73
     1
176
     1
 90
        2
176
     1
 40
0.6
176
     1
 41
30.0
176
     1
 63
     7
421
 16777215
176
     1
 74
     0
176
     1
 91
        4
176
     1
 64
     7
176
     1
 65
   257
176
     1
 75
     1
176
     1
175
     1
176
     1
 42
1.0
176
     1
 92
        8
176
     1
 66
   257
176
     1
 43
1.0
176
     1
 76
     1
176
     1
 77
     6
176
     1
 78
     2
176
     1
 67
     8
425
  7895160
176
     1
 79
     3
176
     1
170
     0
176
     1
171
     0
176
     1
290
     0
176
     1
 93
        5
176
     1
 44
0.0
176
     1
173
     0
176
     1
1001
ACAD
1000
AcDbSavedByObjectVersion
1070
     0
  0
VISUALSTYLE
  5
85B
102
{ACAD_XDICTIONARY
360
14C1
102
}
102
{ACAD_REACTORS
330
847
102
}
330
847
100
AcDbVisualStyle
  2
Shaded with edges
 70
    26
177
     2
291
     0
 71
     2
176
     1
 72
     2
176
     1
 73
     1
176
     1
 90
        2
176
     1
 40
0.6
176
     1
 41
30.0
176
     1
 63
     7
421
 16777215
176
     1
 74
     1
176
     1
 91
       10
176
     1
 64
     7
176
     1
 65
   257
176
     1
 75
     2
176
     1
175
     1
176
     1
 42
1.0
176
     1
 92
        8
176
     1
 66
   257
176
     1
 43
1.0
176
     1
 76
     1
176
     1
 77
     6
176
     1
 78
     2
176
     1
 67
     7
176
     1
 79
     3
176
     1
170
     0
176
     1
171
     0
176
     1
290
     0
176
     1
 93
        5
176
     1
 44
0.0
176
     1
173
     0
176
     1
1001
ACAD
1000
AcDbSavedByObjectVersion
1070
     0
  0
VISUALSTYLE
  5
858
102
{ACAD_XDICTIONARY
360
14BB
102
}
102
{ACAD_REACTORS
330
847
102
}
330
847
100
AcDbVisualStyle
  2
Shades of Gray
 70
    23
177
     2
291
     0
 71
     2
176
     1
 72
     2
176
     1
 73
     3
176
     1
 90
        0
176
     1
 40
0.6
176
     1
 41
30.0
176
     1
 63
     7
421
 16777215
176
     1
 74
     2
176
     1
 91
        2
176
     1
 64
     7
176
     1
 65
     7
176
     1
 75
     1
176
     1
175
     1
176
     1
 42
40.0
176
     1
 92
        8
176
     1
 66
     7
176
     1
 43
1.0
176
     1
 76
     1
176
     1
 77
     6
176
     1
 78
     2
176
     1
 67
     7
176
     1
 79
     3
176
     1
170
     0
176
     1
171
     0
176
     1
290
     0
176
     1
 93
        1
176
     1
 44
0.0
176
     1
173
     0
176
     1
1001
ACAD
1000
AcDbSavedByObjectVersion
1070
     0
  0
VISUALSTYLE
  5
859
102
{ACAD_XDICTIONARY
360
14BD
102
}
102
{ACAD_REACTORS
330
847
102
}
330
847
100
AcDbVisualStyle
  2
Sketchy
 70
    24
177
     2
291
     0
 71
     1
176
     1
 72
     2
176
     1
 73
     2
176
     1
 90
        0
176
     1
 40
0.6
176
     1
 41
30.0
176
     1
 63
     7
421
 16777215
176
     1
 74
     2
176
     1
 91
        2
176
     1
 64
     7
176
     1
 65
     7
176
     1
 75
     1
176
     1
175
     1
176
     1
 42
40.0
176
     1
 92
       11
176
     1
 66
     7
176
     1
 43
1.0
176
     1
 76
     1
176
     1
 77
     6
176
     1
 78
     2
176
     1
 67
     7
176
     1
 79
     6
176
     1
170
     0
176
     1
171
     0
176
     1
290
     0
176
     1
 93
        1
176
     1
 44
0.0
176
     1
173
     0
176
     1
1001
ACAD
1000
AcDbSavedByObjectVersion
1070
     0
  0
VISUALSTYLE
  5
854
102
{ACAD_XDICTIONARY
360
14B3
102
}
102
{ACAD_REACTORS
330
847
102
}
330
847
100
AcDbVisualStyle
  2
Thicken
 70
    13
177
     2
291
     1
 71
     2
176
     1
 72
     2
176
     1
 73
     0
176
     1
 90
        0
176
     1
 40
0.6
176
     1
 41
30.0
176
     1
 63
     7
421
 16777215
176
     1
 74
     1
176
     1
 91
        4
176
     1
 64
     7
176
     1
 65
   257
176
     1
 75
     1
176
     1
175
     1
176
     1
 42
1.0
176
     1
 92
       12
176
     1
 66
     7
176
     1
 43
1.0
176
     1
 76
     1
176
     1
 77
     6
176
     1
 78
     2
176
     1
 67
     7
176
     1
 79
     5
176
     1
170
     0
176
     1
171
     0
176
     1
290
     0
176
     1
 93
        1
176
     1
 44
0.0
176
     1
173
     0
176
     1
1001
ACAD
1000
AcDbSavedByObjectVersion
1070
     0
  0
VISUALSTYLE
  5
84E
102
{ACAD_XDICTIONARY
360
14A7
102
}
102
{ACAD_REACTORS
330
847
102
}
330
847
100
AcDbVisualStyle
  2
Wireframe
 70
     5
177
     2
291
     0
 71
     0
176
     1
 72
     2
176
     1
 73
     0
176
     1
 90
        0
176
     1
 40
0.6
176
     1
 41
30.0
176
     1
 63
     7
421
 16777215
176
     1
 74
     1
176
     1
 91
        4
176
     1
 64
     7
176
     1
 65
   257
176
     1
 75
     1
176
     1
175
     1
176
     1
 42
1.0
176
     1
 92
        0
176
     1
 66
   257
176
     1
 43
1.0
176
     1
 76
     1
176
     1
 77
     6
176
     1
 78
     2
176
     1
 67
     7
176
     1
 79
     3
176
     1
170
     0
176
     1
171
     0
176
     1
290
     0
176
     1
 93
        1
176
     1
 44
0.0
176
     1
173
     0
176
     1
1001
ACAD
1000
AcDbSavedByObjectVersion
1070
     0
  0
VISUALSTYLE
  5
85A
102
{ACAD_XDICTIONARY
360
14BF
102
}
102
{ACAD_REACTORS
330
847
102
}
330
847
100
AcDbVisualStyle
  2
X-Ray
 70
    25
177
     2
291
     0
 71
     2
176
     1
 72
     2
176
     1
 73
     1
176
     1
 90
        1
176
     1
 40
0.5
176
     1
 41
30.0
176
     1
 63
     7
421
 16777215
176
     1
 74
     1
176
     1
 91
        0
176
     1
 64
     7
176
     1
 65
   257
176
     1
 75
     1
176
     1
175
     1
176
     1
 42
1.0
176
     1
 92
        8
176
     1
 66
     7
176
     1
 43
1.0
176
     1
 76
     1
176
     1
 77
     6
176
     1
 78
     2
176
     1
 67
     7
176
     1
 79
     3
176
     1
170
     0
176
     1
171
     0
176
     1
290
     0
176
     1
 93
       13
176
     1
 44
0.0
176
     1
173
     0
176
     1
1001
ACAD
1000
AcDbSavedByObjectVersion
1070
     0
  0
DICTIONARYVAR
  5
AF0
102
{ACAD_REACTORS
330
AEA
102
}
330
AEA
100
DictionaryVariables
280
     0
  1
1:1
  0
DICTIONARYVAR
  5
AEC
102
{ACAD_REACTORS
330
AEA
102
}
330
AEA
100
DictionaryVariables
280
     0
  1
STANDARD
  0
DICTIONARYVAR
  5
AEB
102
{ACAD_REACTORS
330
AEA
102
}
330
AEA
100
DictionaryVariables
280
     0
  1
STANDARD
  0
DICTIONARYVAR
  5
AED
102
{ACAD_REACTORS
330
AEA
102
}
330
AEA
100
DictionaryVariables
280
     0
  1
Metric50
  0
DICTIONARYVAR
  5
AEE
102
{ACAD_REACTORS
330
AEA
102
}
330
AEA
100
DictionaryVariables
280
     0
  1
Metric50
  0
DICTIONARYVAR
  5
AF2
102
{ACAD_REACTORS
330
AEA
102
}
330
AEA
100
DictionaryVariables
280
     0
  1
1
  0
DICTIONARYVAR
  5
AF3
102
{ACAD_REACTORS
330
AEA
102
}
330
AEA
100
DictionaryVariables
280
     0
  1
15
  0
DICTIONARYVAR
  5
AF1
102
{ACAD_REACTORS
330
AEA
102
}
330
AEA
100
DictionaryVariables
280
     0
  1
0
  0
DICTIONARYVAR
  5
AEF
102
{ACAD_REACTORS
330
AEA
102
}
330
AEA
100
DictionaryVariables
280
     0
  1
0
  0
DICTIONARY
  5
14CD
330
87A
100
AcDbDictionary
280
     1
281
     1
  3
ACAD_XREC_ROUNDTRIP
360
14CE
  0
DICTIONARY
  5
C8B
330
880
100
AcDbDictionary
280
     1
281
     1
  3
ADSK_XREC_LAYOUTTHUMBNAIL
360
C8C
  0
DICTIONARY
  5
838
330
837
100
AcDbDictionary
280
     1
281
     1
  3
BUMPTILE
360
83A
  3
DIFFUSETILE
360
839
  3
OPACITYTILE
360
83D
  3
REFLECTIONTILE
360
83C
  3
REFRACTIONTILE
360
83E
  3
SPECULARTILE
360
83B
  0
DICTIONARY
  5
830
330
82F
100
AcDbDictionary
280
     1
281
     1
  3
BUMPTILE
360
832
  3
DIFFUSETILE
360
831
  3
OPACITYTILE
360
835
  3
REFLECTIONTILE
360
834
  3
REFRACTIONTILE
360
836
  3
SPECULARTILE
360
833
  0
DICTIONARY
  5
840
330
83F
100
AcDbDictionary
280
     1
281
     1
  3
BUMPTILE
360
842
  3
DIFFUSETILE
360
841
  3
OPACITYTILE
360
845
  3
REFLECTIONTILE
360
844
  3
REFRACTIONTILE
360
846
  3
SPECULARTILE
360
843
  0
DICTIONARY
  5
14CB
330
878
100
AcDbDictionary
280
     1
281
     1
  3
ACAD_XREC_ROUNDTRIP
360
14CC
  0
DICTIONARY
  5
AF4
330
862
100
AcDbDictionary
280
     1
281
     1
  3
ACAD_ROUNDTRIP_2008_TABLESTYLE_CELLSTYLEMAP
360
1498
  0
DICTIONARY
  5
14A5
330
84D
100
AcDbDictionary
280
     1
281
     1
  3
ACAD_XREC_ROUNDTRIP
360
14A6
  0
DICTIONARY
  5
14A3
330
84C
100
AcDbDictionary
280
     1
281
     1
  3
ACAD_XREC_ROUNDTRIP
360
14A4
  0
DICTIONARY
  5
14B1
330
853
100
AcDbDictionary
280
     1
281
     1
  3
ACAD_XREC_ROUNDTRIP
360
14B2
  0
DICTIONARY
  5
14B9
330
857
100
AcDbDictionary
280
     1
281
     1
  3
ACAD_XREC_ROUNDTRIP
360
14BA
  0
DICTIONARY
  5
14AB
330
850
100
AcDbDictionary
280
     1
281
     1
  3
ACAD_XREC_ROUNDTRIP
360
14AC
  0
DICTIONARY
  5
14AF
330
852
100
AcDbDictionary
280
     1
281
     1
  3
ACAD_XREC_ROUNDTRIP
360
14B0
  0
DICTIONARY
  5
14C9
330
85F
100
AcDbDictionary
280
     1
281
     1
  3
ACAD_XREC_ROUNDTRIP
360
14CA
  0
DICTIONARY
  5
14B7
330
856
100
AcDbDictionary
280
     1
281
     1
  3
ACAD_XREC_ROUNDTRIP
360
14B8
  0
DICTIONARY
  5
149B
330
848
100
AcDbDictionary
280
     1
281
     1
  3
ACAD_XREC_ROUNDTRIP
360
149C
  0
DICTIONARY
  5
149D
330
849
100
AcDbDictionary
280
     1
281
     1
  3
ACAD_XREC_ROUNDTRIP
360
149E
  0
DICTIONARY
  5
149F
330
84A
100
AcDbDictionary
280
     1
281
     1
  3
ACAD_XREC_ROUNDTRIP
360
14A0
  0
DICTIONARY
  5
14A1
330
84B
100
AcDbDictionary
280
     1
281
     1
  3
ACAD_XREC_ROUNDTRIP
360
14A2
  0
DICTIONARY
  5
14A9
330
84F
100
AcDbDictionary
280
     1
281
     1
  3
ACAD_XREC_ROUNDTRIP
360
14AA
  0
DICTIONARY
  5
14C5
330
85D
100
AcDbDictionary
280
     1
281
     1
  3
ACAD_XREC_ROUNDTRIP
360
14C6
  0
DICTIONARY
  5
14B5
330
855
100
AcDbDictionary
280
     1
281
     1
  3
ACAD_XREC_ROUNDTRIP
360
14B6
  0
DICTIONARY
  5
14C7
330
85E
100
AcDbDictionary
280
     1
281
     1
  3
ACAD_XREC_ROUNDTRIP
360
14C8
  0
DICTIONARY
  5
14AD
330
851
100
AcDbDictionary
280
     1
281
     1
  3
ACAD_XREC_ROUNDTRIP
360
14AE
  0
DICTIONARY
  5
14C3
330
85C
100
AcDbDictionary
280
     1
281
     1
  3
ACAD_XREC_ROUNDTRIP
360
14C4
  0
DICTIONARY
  5
14C1
330
85B
100
AcDbDictionary
280
     1
281
     1
  3
ACAD_XREC_ROUNDTRIP
360
14C2
  0
DICTIONARY
  5
14BB
330
858
100
AcDbDictionary
280
     1
281
     1
  3
ACAD_XREC_ROUNDTRIP
360
14BC
  0
DICTIONARY
  5
14BD
330
859
100
AcDbDictionary
280
     1
281
     1
  3
ACAD_XREC_ROUNDTRIP
360
14BE
  0
DICTIONARY
  5
14B3
330
854
100
AcDbDictionary
280
     1
281
     1
  3
ACAD_XREC_ROUNDTRIP
360
14B4
  0
DICTIONARY
  5
14A7
330
84E
100
AcDbDictionary
280
     1
281
     1
  3
ACAD_XREC_ROUNDTRIP
360
14A8
  0
DICTIONARY
  5
14BF
330
85A
100
AcDbDictionary
280
     1
281
     1
  3
ACAD_XREC_ROUNDTRIP
360
14C0
  0
XRECORD
  5
14CE
102
{ACAD_REACTORS
330
14CD
102
}
330
14CD
100
AcDbXrecord
280
     1
102
DISPLAYNAME
  1
Metric50
102
FLAGS
 90
        0
  0
XRECORD
  5
C8C
102
{ACAD_REACTORS
330
C8B
102
}
330
C8B
100
AcDbXrecord
280
     1
310
2800000000010000B5000000010008000000000000B5000001000000010000000001000000000000FFFFFF6600000052C8C8C85600000050000000730000003200000031000000500000006F0000004F00000032330000466600006699000052CC000056FF00005000330073333300326633003199330050CC33006FFF3300
310
3200660018336600006666000099660000CC660000FF66000000990000339900006699000099990000CC990000FF99000000CC000033CC000066CC000099CC0000CCCC0000FFCC000000FF000033FF000066FF000099FF0000CCFF0000FFFF00010000331433003354660033539900336FCC003374FF003330003333303333
310
33726633337099333370CC333330FF3333010066331233663354666633539966336FCC663374FF66333000993330339933726699337099993331CC993300FF99330000CC330033CC330066CC330099CC3300CCCC3300FFCC330000FF330033FF330066FF330099FF3300CCFF3300FFFF330000006600330066006600660099
310
006600CC006600FF00660000336600333366006633660099336666CC336652FF33665600666650336666736666663299666631CC666650FF66666F0099664F339966336699664699996666CC996652FF99665600CC665033CC667366CC663299CC6631CCCC6650FFCC666F00FF663333FF661866FF660099FF6600CCFF6600
310
FFFF660000009900330099006600990099009900CC009900FF00990000339900333399006633990099339900CC339900FF33990000669900336699006666990099669900CC669900FF66990000999901339999146699995499999953CC99996FFF99997400CC993033CC993066CC997299CC9970CCCC9970FFCC993400FF99
310
0133FF991266FF995499FF9953CCFF996FFFFF99740000CC303300CC306600CC729900CC70CC00CC35FF00CC000033CC003333CC006633CC009933CC00CC33CC00FF33CC000066CC003366CC006666CC009966CC00CC66CC00FF66CC000099CC003399CC006699CC009999CC00CC99CC00FF99CC0000CCCC0033CCCC0066CC
310
CC0099CCCC00CCCCCC66FFCCCC5200FFCC5633FFCC5066FFCC7399FFCC32CCFFCC31FFFFCC500000FF6F3300FF4F6600FF339900FF46CC00FF66FF00FF520033FF563333FF506633FF739933FF32CC33FF31FF33FF500066FF6F3366FF336666FF5A9966FF00CC66FF14FF66FF540099FF533399FF6F6699FF749999FF30CC
310
99FF30FF99FF7200CCFF7033CCFF7066CCFF3799CCFF00CCCCFF12FFCCFF5400FFFF5333FFFF6F66FFFF7499FFFF30CCFFFF30FFFFFF72000000700D0D0D381A1A1A00282828003535356643434352505050565D5D5D506B6B6B73787878328686863193939350A1A1A16FAEAEAE4FBBBBBB33C9C9C946D6D6D666E4E4E452
310
F1F1F156FFFFFF50000000730000003200000031000000500000006F000000330000008C00000000000000F000000000E2000000000000000000000000000000000000000000000000000000000000000000000000000000000000000000000000000000000000000000000000000000000000000000000000000000000000
310
00000000000000000000000000000000000000000000000000000000000000000000000000000000000000000000000000000000000000000000000000000000000000000000000000000000000000000000000000000000000000000000000000000000000000000000000000000000000000000000000000000000000000
310
000000000000000000000000000000000000000000000000000000000000000000000000000000000000000000000000E20000E2E20000000000000000000000000000000000000000000000000000000000000000000000000000000000000000000000000000000000000000000000000000000000000000000000000000
310
00000000000000000000000000000000000000000000000000000000000000000000000000000000000000000000000000000000000000000000000000000000000000000000000000000000000000000000000000000000000000000000000000000000000000000000000000000000000000000000000000000000000000
310
000000000000000000000000000000000000000000000000000000000000000000000000000000000000000000000000E2E20000000000E20000000000000000000000000000000000000000000000000000000000000000000000000000000000000000000000000000000000000000000000000000000000000000000000
310
00000000000000000000000000000000000000000000000000000000000000000000000000000000000000000000000000000000000000000000000000000000000000000000000000000000000000000000000000000000000000000000000000000000000000000000000000000000000000000000000000000000000000
310
00000000000000000000000000000000000000000000000000000000000000000000000000000000000000000000000000E20000000000000000E20000000000000000000000000000000000000000000000000000000000000000000000000000000000000000000000000000000000000000000000000000000000000000
310
00000000000000000000000000000000000000000000000000000000000000000000000000000000000000000000000000000000000000000000000000000000000000000000000000000000000000000000000000000000000000000000000000000000000000000000000000000000000000000000000000000000000000
310
0000000000000000000000000000000000000000000000000000000000000000000000000000000000000000000000000000E200000000000000000000E2E200000000000000000000000000000000000000000000000000000000000000000000000000000000000000000000000000000000000000000000000000000000
310
00000000000000000000000000000000000000000000000000000000000000000000000000000000000000000000000000000000000000000000000000000000000000000000000000000000000000000000000000000000000000000000000000000000000000000000000000000000000000000000000000000000000000
310
0000000000000000000000000000000000000000000000000000000000000000000000000000000000000000000000000000E2E200000000000000000000000000E200000000000000000000000000000000000000000000000000000000000000000000000000000000000000000000000000000000000000000000000000
310
00000000000000000000000000000000000000000000000000000000000000000000000000000000000000000000000000000000000000000000000000000000000000000000000000000000000000000000000000000000000000000000000000000000000000000000000000000000000000000000000000000000000000
310
000000000000000000000000000000000000000000000000000000000000000000000000000000000000000000000000000000E200000000000000000000000000000000E2E2000000000000000000000000000000000000000000000000000000000000000000000000000000000000000000000000000000000000000000
310
00000000000000000000000000000000000000000000000000000000000000000000000000000000000000000000000000000000000000000000000000000000000000000000000000000000000000000000000000000000000000000000000000000000000000000000000000000000000000000000000000000000000000
310
000000000000000000000000000000000000000000000000000000000000000000000000000000000000000000000000000000E2E200000000000000000000000000000000000000E2000000000000000000000000000000000000000000000000000000000000000000000000000000000000000000000000000000000000
310
00000000000000000000000000000000000000000000000000000000000000000000000000000000000000000000000000000000000000000000000000000000000000000000000000000000000000000000000000000000000000000000000000000000000000000000000000000000000000000000000000000000000000
310
00000000000000000000000000000000000000000000000000000000000000000000000000000000000000000000000000000000E200000000000000000000000000000000000000000000E2000000000000000000000000000000000000000000000000000000000000000000000000000000000000000000000000000000
310
00000000000000000000000000000000000000000000000000000000000000000000000000000000000000000000000000000000000000000000000000000000000000000000000000000000000000000000000000000000000000000000000000000000000000000000000000000000000000000000000000000000000000
310
0000000000000000000000000000000000000000000000000000000000000000000000000000000000000000000000000000000000E2000000000000000000000000000000000000000000000000E2E20000000000000000000000000000000000000000000000000000000000000000000000000000000000000000000000
310
00000000000000000000000000000000000000000000000000000000000000000000000000000000000000000000000000000000000000000000000000000000000000000000000000000000000000000000000000000000000000000000000000000000000000000000000000000000000000000000000000000000000000
310
0000000000000000000000000000000000000000000000000000000000000000000000000000000000000000000000000000000000E2E2000000000000000000000000000000000000000000000000000000E20000000000000000000000000000000000000000000000000000000000000000000000000000000000000000
310
00000000000000000000000000000000000000000000000000000000000000000000000000000000000000000000000000000000000000000000000000000000000000000000000000000000000000000000000000000000000000000000000000000000000000000000000000000000000000000000000000000000000000
310
000000000000000000000000000000000000000000000000000000000000000000000000000000000000000000000000000000000000E2000000000000000000000000000000000000000000000000000000000000E2E200000000000000000000000000000000000000000000000000000000000000000000000000000000
310
00000000000000000000000000000000000000000000000000000000000000000000000000000000000000000000000000000000000000000000000000000000000000000000000000000000000000000000000000000000000000000000000000000000000000000000000000000000000000000000000000000000000000
310
000000000000000000000000000000000000000000000000000000000000000000000000000000000000000000000000000000000000E2E2000000000000000000000000000000000000000000000000000000000000000000E200000000000000000000000000000000000000000000000000000000000000000000000000
310
00000000000000000000000000000000000000000000000000000000000000000000000000000000000000000000000000000000000000000000000000000000000000000000000000000000000000000000000000000000000000000000000000000000000000000000000000000000000000000000000000000000000000
310
00000000000000000000000000000000000000000000000000000000000000000000000000000000000000000000000000000000000000E2000000000000000000000000000000000000000000000000000000000000000000000000E2E2000000000000000000000000000000000000000000000000000000000000000000
310
00000000000000000000000000000000000000000000000000000000000000000000000000000000000000000000000000000000000000000000000000000000000000000000000000000000000000000000000000000000000000000000000000000000000000000000000000000000000000000000000000000000000000
310
00000000000000000000000000000000000000000000000000000000000000000000000000000000000000000000000000000000000000E2E2000000000000000000000000000000000000000000000000000000000000000000000000000000E2000000000000000000000000000000000000000000000000000000000000
310
00000000000000000000000000000000000000000000000000000000000000000000000000000000000000000000000000000000000000000000000000000000000000000000000000000000000000000000000000000000000000000000000000000000000000000000000000000000000000000000000000000000000000
310
0000000000000000000000000000000000000000000000000000000000000000000000000000000000000000000000000000000000000000E2000000000000000000000000000000000000000000000000000000000000000000000000000000000000E2000000000000000000000000000000000000000000000000000000
310
00000000000000000000000000000000000000000000000000000000000000000000000000000000000000000000000000000000000000000000000000000000000000000000000000000000000000000000000000000000000000000000000000000000000000000000000000000000000000000000000000000000000000
310
000000000000000000000000000000000000000000000000000000000000000000000000000000000000000000000000000000000000000000E20000000000000000000000000000000000000000000000000000000000000000000000000000000000000000E2E20000000000000000000000000000000000000000000000
310
00000000000000000000000000000000000000000000000000000000000000000000000000000000000000000000000000000000000000000000000000000000000000000000000000000000000000000000000000000000000000000000000000000000000000000000000000000000000000000000000000000000000000
310
000000000000000000000000000000000000000000000000000000000000000000000000000000000000000000000000000000000000000000E2E20000000000000000000000000000000000000000000000000000000000000000000000000000000000000000000000E20000000000000000000000000000000000000000
310
00000000000000000000000000000000000000000000000000000000000000000000000000000000000000000000000000000000000000000000000000000000000000000000000000000000000000000000000000000000000000000000000000000000000000000000000000000000000000000000000000000000000000
310
00000000000000000000000000000000000000000000000000000000000000000000000000000000000000000000000000000000000000000000E20000000000000000000000000000000000000000000000000000000000000000000000000000000000000000000000000000E2E200000000000000000000000000000000
310
00000000000000000000000000000000000000000000000000000000000000000000000000000000000000000000000000000000000000000000000000000000000000000000000000000000000000000000000000000000000000000000000000000000000000000000000000000000000000000000000000000000000000
310
00000000000000000000000000000000000000000000000000000000000000000000000000000000000000000000000000000000000000000000E2E20000000000000000000000000000000000000000000000000000000000000000000000000000000000000000000000000000000000E200000000000000000000000000
310
00000000000000000000000000000000000000000000000000000000000000000000000000000000000000000000000000000000000000000000000000000000000000000000000000000000000000000000000000000000000000000000000000000000000000000000000000000000000000000000000000000000000000
310
0000000000000000000000000000000000000000000000000000000000000000000000000000000000000000000000000000000000000000000000E20000000000000000000000000000000000000000000000000000000000000000000000000000000000000000000000000000000000000000E200000000000000000000
310
00000000000000000000000000000000000000000000000000000000000000000000000000000000000000000000000000000000000000000000000000000000000000000000000000000000000000000000000000000000000000000000000000000000000000000000000000000000000000000000000000000000000000
310
000000000000000000000000000000000000000000000000000000000000000000000000000000000000000000000000000000000000000000000000E200000000000000000000000000000000000000000000000000000000000000000000000000000000000000000000000000000000000000000000E2E2000000000000
310
00000000000000000000000000000000000000000000000000000000000000000000000000000000000000000000000000000000000000000000000000000000000000000000000000000000000000000000000000000000000000000000000000000000000000000000000000000000000000000000000000000000000000
310
000000000000000000000000000000000000000000000000000000000000000000000000000000000000000000000000000000000000000000000000E2E200000000000000000000000000000000000000000000000000000000000000000000000000000000000000000000000000000000000000000000000000E2000000
310
00000000000000000000000000000000000000000000000000000000000000000000000000000000000000000000000000000000000000000000000000000000000000000000000000000000000000000000000000000000000000000000000000000000000000000000000000000000000000000000000000000000000000
310
00000000000000000000000000000000000000000000000000000000000000000000000000000000000000000000000000000000000000000000000000E200000000000000000000000000000000000000000000000000000000000000000000000000000000000000000000000000000000000000000000000000000000E2
310
E2000000000000000000000000000000000000000000000000000000000000000000000000000000000000000000000000000000000000000000000000000000000000000000000000000000000000000000000000000000000000000000000000000000000000000000000000000000000000000000000000000000000000
310
00000000000000000000000000000000000000000000000000000000000000000000000000000000000000000000000000000000000000000000000000E2E200000000000000000000000000000000000000000000000000000000000000000000000000000000000000000000000000000000000000000000000000000000
310
000000E2000000000000000000000000000000000000000000000000000000000000000000000000000000000000000000000000000000000000000000000000000000000000000000000000000000000000000000000000000000000000000000000000000000000000000000000000000000000000000000000000000000
310
0000000000000000000000000000000000000000000000000000000000000000000000000000000000000000000000000000000000000000000000000000E200000000000000000000000000000000000000000000000000000000000000000000000000000000000000000000000000000000000000000000000000000000
310
000000000000E2000000000000000000000000000000000000000000000000000000000000000000000000000000000000000000000000000000000000000000000000000000000000000000000000000000000000000000000000000000000000000000000000000000000000000000000000000000000000000000000000
310
000000000000000000000000000000000000000000000000000000000000000000000000000000000000000000000000000000000000000000000000000000E2000000000000000000000000000000000000000000000000000000000000000000000000000000000000000000000000000000000000000000000000000000
310
000000000000000000E2E20000000000000000000000000000000000000000000000000000000000000000000000000000000000000000000000000000000000000000000000000000000000000000000000000000000000000000000000000000000000000000000000000000000000000000000000000000000000000000
310
000000000000000000000000000000000000000000000000000000000000000000000000000000000000000000000000000000000000000000000000000000E2E20000000000000000000000000000000000000000000000000000000000000000000000000000000000000000000000000000000000000000000000000000
310
00000000000000000000000000E20000000000000000000000000000000000000000000000000000000000000000000000000000000000000000000000000000000000000000000000000000000000000000000000000000000000000000000000000000000000000000000000000000000000000000000000000000000000
310
00000000000000000000000000000000000000000000000000000000000000000000000000000000000000000000000000000000000000000000000000000000E20000000000000000000000000000000000000000000000000000000000000000000000000000000000000000000000000000000000000000000000000000
310
00000000000000000000000000000000E2E200000000000000000000000000000000000000000000000000000000000000000000000000000000000000000000000000000000000000000000000000000000000000000000000000000000000000000000000000000000000000000000000000000000000000000000000000
310
00000000000000000000000000000000000000000000000000000000000000000000000000000000000000000000000000000000000000000000000000000000E2E200000000000000000000000000000000000000000000000000000000000000000000000000000000000000000000000000000000000000000000000000
310
0000000000000000000000000000000000000000E200000000000000000000000000000000000000000000000000000000000000000000000000000000000000000000000000000000000000000000000000000000000000000000000000000000000000000000000000000000000000000000000000000000000000000000
310
0000000000000000000000000000000000000000000000000000000000000000000000000000000000000000000000000000000000000000000000000000000000E200000000000000000000000000000000000000000000000000000000000000000000000000000000000000000000000000000000000000000000000000
310
0000000000000000000000000000000000000000000000E2E2000000000000000000000000000000000000000000000000000000000000000000000000000000000000000000000000000000000000000000000000000000000000000000000000000000000000000000000000000000000000000000000000000000000000
310
0000000000000000000000000000000000000000000000000000000000000000000000000000000000000000000000000000000000000000000000000000000000E2E2000000000000000000000000000000000000000000000000000000000000000000000000000000000000000000000000000000000000000000000000
310
000000000000000000000000000000000000000000000000000000E2000000000000000000000000000000000000000000000000000000000000000000000000000000000000000000000000000000000000000000000000000000000000000000000000000000000000000000000000000000000000000000000000000000
310
000000000000000000000000000000000000000000000000000000000000000000000000000000000000000000000000000000000000000000000000000000000000E2000000000000000000000000000000000000000000000000000000000000000000000000000000000000000000000000000000000000000000000000
310
000000000000000000000000000000000000000000000000000000000000E2000000000000000000000000000000000000000000000000000000000000000000000000000000000000000000000000000000000000000000000000000000000000000000000000000000000000000000000000000000000000000000000000
310
00000000000000000000000000000000000000000000000000000000000000000000000000000000000000000000000000000000000000000000000000000000000000E20000000000000000000000000000000000000000000000000000000000000000000000000000000000000000000000000000000000000000000000
310
000000000000000000000000000000000000000000000000000000000000000000E2E20000000000000000000000000000000000000000000000000000000000000000000000000000000000000000000000000000000000000000000000000000000000000000000000000000000000000000000000000000000000000000
310
00000000000000000000000000000000000000000000000000000000000000000000000000000000000000000000000000000000000000000000000000000000000000E2E200000000000000000000000000000000000000000000000000000000000000000000000000000000000000000000000000000000000000000000
310
00000000000000000000000000000000000000000000000000000000000000000000000000E20000000000000000000000000000000000000000000000000000000000000000000000000000000000000000000000000000000000000000000000000000000000000000000000000000000000000000000000000000000000
310
0000000000000000000000000000000000000000000000000000000000000000000000000000000000000000000000000000000000000000000000000000000000000000E200000000000000000000000000000000000000000000000000000000000000000000000000000000000000000000000000000000000000000000
310
00000000000000000000000000000000000000000000000000000000000000000000000000000000E2E200000000000000000000000000000000000000000000000000000000000000000000000000000000000000000000000000000000000000000000000000000000000000000000000000000000000000000000000000
310
0000000000000000000000000000000000000000000000000000000000000000000000000000000000000000000000000000000000000000000000000000000000000000E2E2000000000000000000000000000000000000000000000000000000000000000000000000000000000000000000000000000000000000000000
310
0000000000000000000000000000000000000000000000000000000000000000000000000000000000000000E200000000000000000000000000000000000000000000000000000000000000000000000000000000000000000000000000000000000000000000000000000000000000000000000000000000000000000000
310
000000000000000000000000000000000000000000000000000000000000000000000000000000000000000000000000000000000000000000000000000000000000000000E2000000000000000000000000000000000000000000000000000000000000000000000000000000000000000000000000000000000000000000
310
0000000000000000000000000000000000000000000000000000000000000000000000000000000000000000000000E200000000000000000000000000000000000000000000000000000000000000000000000000000000000000000000000000000000000000000000000000000000000000000000000000000000000000
310
00000000000000000000000000000000000000000000000000000000000000000000000000000000000000000000000000000000000000000000000000000000000000000000E20000000000000000000000000000000000000000000000000000000000000000000000000000000000000000000000000000000000000000
310
0000000000000000000000000000000000000000000000000000000000000000000000000000000000000000000000000000E2E2000000000000000000000000000000000000000000000000000000000000000000000000000000000000000000000000000000000000000000000000000000000000000000000000000000
310
00000000000000000000000000000000000000000000000000000000000000000000000000000000000000000000000000000000000000000000000000000000000000000000E2E200000000000000000000000000000000000000000000000000000000000000000000000000000000000000000000000000000000000000
310
000000000000000000000000000000000000000000000000000000000000000000000000000000000000000000000000000000000000E2000000000000000000000000000000000000000000000000000000000000E2E2E2E2E2E2E2E2E2E2E2E2E2E2E2E2E2E2E2E2E2E2E2E2E2E2E2E2E2E2E2E2E2E2E2E2E2E2E2E2E2E2
310
E2E2E2E2E2E2E2E2E2E2E2E2E2E2E2E2E2E2E2E2E2E2E2E2E2E2E2E2E2E2E2E2E2E2E2E2E2E2E2E2E2000000000000000000000000000000000000000000000000000000000000E200000000000000000000000000000000000000000000000000000000000000000000000000000000000000000000000000000000000000
310
000000000000000000000000000000000000000000000000000000000000000000000000000000000000000000000000000000000000000000E2E2000000000000000000000000000000000000000000000000000000000000E200E200E2E2E2E2E200E2E2E200E2E2E2E2E2E2E2000000E20000E200E2E2E200E2E200E200
310
E2E2E200E2E2E2E2E20000E20000000000E200000000E20000E2E2000000E200E2E2E2E200E2E2E200000000000000000000000000000000000000000000000000000000000000E2E2000000000000000000000000000000000000000000000000000000000000000000000000000000000000000000000000000000000000
310
00000000000000000000000000000000000000000000000000000000000000000000000000000000000000000000000000000000000000000000000000E20000000000000000000000000000000000000000000000000000000000E200E2E2E2E20000E200E200E2E2E2000000E20000000000E200E2E2E20000E200E2E2E2
310
E200E200E200E2000000E200E2000000000000E200000000E200E20000E2E2E2E2E200E2000000E200E2000000000000000000000000000000000000000000000000000000000000E2000000000000000000000000000000000000000000000000000000000000000000000000000000000000000000000000000000000000
310
00000000000000000000000000000000000000000000000000000000000000000000000000000000000000000000000000000000000000000000000000000000E200000000000000000000000000000000000000000000000000000000E2E200E2E2E20000E200E20000E2E2E2E200E20000000000E200E2E2E20000E200E2
310
E2E2E200E2E2E200E2E2E200E2E2E2000000000000E2E2E200E200E2E20000E200E2E2000000E2E2E20000E20000000000000000000000000000000000000000000000000000000000E20000000000000000000000000000000000000000000000000000000000000000000000000000000000000000000000000000000000
310
00000000000000000000000000000000000000000000000000000000000000000000000000000000000000000000000000000000000000000000000000000000000000E2E20000000000000000000000000000000000000000000000000000E2E20000E2E20000E200E200E200E2000000E20000000000E2E200E2E20000E2
310
00E20000E200E200E200E2000000E20000E20000000000E2000000E200E2E20000E200E2E20000E200E200E200E2000000000000000000000000000000000000000000000000000000E2E200000000000000000000000000000000000000000000000000000000000000000000000000000000000000000000000000000000
310
0000000000000000000000000000000000000000000000000000000000000000000000000000000000000000000000000000000000000000000000000000000000000000000000E200000000000000000000000000000000000000000000000000E2000000E200E2E20000E2E2E200E2E2E2E2E20000000000E20000E2E200
310
00E200E20000E200E2E2E200E2E2E2E2E2E2E2000000000000E2E2E2E20000E200E2E2000000E20000E2E2E200E2E2E20000000000000000000000000000000000000000000000000000E200000000000000000000000000000000000000000000000000000000000000000000000000000000000000000000000000000000
310
0000000000000000000000000000000000000000000000000000000000000000000000000000000000000000000000000000000000000000000000000000000000000000000000000000E2E2000000000000000000000000000000000000000000000000000000000000000000000000000000000000000000000000000000
310
0000000000000000000000000000000000000000000000000000000000000000000000000000000000000000000000000000000000000000000000000000000000000000000000000000E2E2000000000000000000000000000000000000000000000000000000000000000000000000000000000000000000000000000000
310
000000000000000000000000000000000000000000000000000000000000000000000000000000000000000000000000000000000000000000000000000000000000000000000000000000000000E2000000000000000000000000000000000000000000000000000000000000000000000000000000000000000000000000
310
000000000000000000000000000000000000000000000000000000000000000000000000000000000000000000000000000000000000000000000000000000000000000000000000000000E2000000000000000000000000000000000000000000000000000000000000000000000000000000000000000000000000000000
310
000000000000000000000000000000000000000000000000000000000000000000000000000000000000000000000000000000000000000000000000000000000000000000000000000000000000000000E2E20000000000000000000000000000000000000000000000000000000000000000000000000000000000000000
310
000000000000000000000000000000000000000000000000000000000000000000000000000000000000000000000000000000000000000000000000000000000000000000000000000000E2E20000000000000000000000000000000000000000000000000000000000000000000000000000000000000000000000000000
310
00000000000000000000000000000000000000000000000000000000000000000000000000000000000000000000000000000000000000000000000000000000000000000000000000000000000000000000000000E20000000000000000000000000000000000000000000000000000000000000000000000000000000000
310
00000000000000000000000000000000000000000000000000000000000000000000000000000000000000000000000000000000000000000000000000000000000000000000000000000000E20000000000000000000000000000000000000000000000000000000000000000000000000000000000000000000000000000
310
00000000000000000000000000000000000000000000000000000000000000000000000000000000000000000000000000000000000000000000000000000000000000000000000000000000000000000000000000000000E20000000000000000000000000000000000000000000000000000000000000000000000000000
310
0000000000000000000000000000000000000000000000000000000000000000000000000000000000000000000000000000000000000000000000000000000000000000000000000000000000E200000000000000000000000000000000000000000000000000000000000000000000000000000000000000000000000000
310
00000000000000000000000000000000000000000000000000000000000000000000000000000000000000000000000000000000000000000000000000000000000000000000000000000000000000000000000000000000000000E2E200000000000000000000000000000000000000000000000000000000000000000000
310
0000000000000000000000000000000000000000000000000000000000000000000000000000000000000000000000000000000000000000000000000000000000000000000000000000000000E2E2000000000000000000000000000000000000000000000000000000000000000000000000000000000000000000000000
310
0000000000000000000000000000000000000000000000000000000000000000000000000000000000000000000000000000000000000000000000000000000000000000000000000000000000000000000000000000000000000000000000E200000000000000000000000000000000000000000000000000000000000000
310
000000000000000000000000000000000000000000000000000000000000000000000000000000000000000000000000000000000000000000000000000000000000000000000000000000000000E2000000000000000000000000000000000000000000000000000000000000000000000000000000000000000000000000
310
0000000000000000000000000000000000000000000000000000000000000000000000000000000000000000000000000000000000000000000000000000000000000000000000000000000000000000000000000000000000000000000000000000E2E2000000000000000000000000000000000000000000000000000000
310
000000000000000000000000000000000000000000000000000000000000000000000000000000000000000000000000000000000000000000000000000000000000000000000000000000000000E2E20000000000000000000000000000000000000000000000000000000000000000000000000000000000000000000000
310
000000000000000000000000000000000000000000000000000000000000000000000000000000000000000000000000000000000000000000000000000000000000000000000000000000000000000000000000000000000000000000000000000000000000E2000000000000000000000000000000000000000000000000
310
00000000000000000000000000000000000000000000000000000000000000000000000000000000000000000000000000000000000000000000000000000000000000000000000000000000000000E20000000000000000000000000000000000000000000000000000000000000000000000000000000000000000000000
310
000000000000000000000000000000000000000000000000000000000000000000000000000000000000000000000000000000000000000000000000000000000000000000000000000000000000000000000000000000000000000000000000000000000000000000E2000000000000000000000000000000000000000000
310
0000000000000000000000000000000000000000000000000000000000000000000000000000000000000000000000000000000000000000000000000000000000000000000000000000000000000000E200000000000000000000000000000000000000000000000000000000000000000000000000000000000000000000
310
000000000000000000000000000000000000000000000000000000000000000000000000000000000000000000000000000000000000000000000000000000000000000000000000000000000000000000000000000000000000000000000000000000000000000000000000E2E20000000000000000000000000000000000
310
0000000000000000000000000000000000000000000000000000000000000000000000000000000000000000000000000000000000000000000000000000000000000000000000000000000000000000E2E2000000000000000000000000000000000000000000000000000000000000000000000000000000000000000000
310
00000000000000000000000000000000000000000000000000000000000000000000000000000000000000000000000000000000000000000000000000000000000000000000000000000000000000000000000000000000000000000000000000000000000000000000000000000000E20000000000000000000000000000
310
000000000000000000000000000000000000000000000000000000000000000000000000000000000000000000000000000000000000000000000000000000000000000000000000000000000000000000E2000000000000000000000000000000000000000000000000000000000000000000000000000000000000000000
310
00000000000000000000000000000000000000000000000000000000000000000000000000000000000000000000000000000000000000000000000000000000000000000000000000000000000000000000000000000000000000000000000000000000000000000000000000000000000000E2E200000000000000000000
310
000000000000000000000000000000000000000000000000000000000000000000000000000000000000000000000000000000000000000000000000000000000000000000000000000000000000000000E2E20000000000000000000000000000000000000000000000000000000000000000000000000000000000000000
310
0000000000000000000000000000000000000000000000000000000000000000000000000000000000000000000000000000000000000000000000000000000000000000000000000000000000000000000000000000000000000000000000000000000000000000000000000000000000000000000000E200000000000000
310
00000000000000000000000000000000000000000000000000000000000000000000000000000000000000000000000000000000000000000000000000000000000000000000000000000000000000000000E20000000000000000000000000000000000000000000000000000000000000000000000000000000000000000
310
0000000000000000000000000000000000000000000000000000000000000000000000000000000000000000000000000000000000000000000000000000000000000000000000000000000000000000000000000000000000000000000000000000000000000000000000000000000000000000000000000000E200000000
310
0000000000000000000000000000000000000000000000000000000000000000000000000000000000000000000000000000000000000000000000000000000000000000000000000000000000000000000000E200000000000000000000000000000000000000000000000000000000000000000000000000000000000000
310
0000000000000000000000000000000000000000000000000000000000000000000000000000000000000000000000000000000000000000000000000000000000000000000000000000000000000000000000000000000000000000000000000000000000000000000000000000000000000000000000000000000000E2E2
310
0000000000000000000000000000000000000000000000000000000000000000000000000000000000000000000000000000000000000000000000000000000000000000000000000000000000000000000000E2E2000000000000000000000000000000000000000000000000000000000000000000000000000000000000
310
00000000000000000000000000000000000000000000000000000000000000000000000000000000000000000000000000000000000000000000000000000000000000000000000000000000000000000000000000000000000000000000000000000000000000000000000000000000000000000000000000000000000000
310
0000E2000000000000000000000000000000000000000000000000000000000000000000000000000000000000000000000000000000000000000000000000000000000000000000000000000000000000000000E2000000000000000000000000000000000000000000000000000000000000000000000000000000000000
310
00000000000000000000000000000000000000000000000000000000000000000000000000000000000000000000000000000000000000000000000000000000000000000000000000000000000000000000000000000000000000000000000000000000000000000000000000000000000000000000000000000000000000
310
0000000000E2E20000000000000000000000000000000000000000000000000000000000000000000000000000000000000000000000000000000000000000000000000000000000000000000000000000000000E2E20000000000000000000000000000000000000000000000000000000000000000000000000000000000
310
00000000000000000000000000000000000000000000000000000000000000000000000000000000000000000000000000000000000000000000000000000000000000000000000000000000000000000000000000000000000000000000000000000000000000000000000000000000000000000000000000000000000000
310
000000000000000000E2000000000000000000000000000000000000000000000000000000000000000000000000000000000000000000000000000000000000000000000000000000000000000000000000000000E20000000000000000000000000000000000000000000000000000000000000000000000000000000000
310
00000000000000000000000000000000000000000000000000000000000000000000000000000000000000000000000000000000000000000000000000000000000000000000000000000000000000000000000000000000000000000000000000000000000000000000000000000000000000000000000000000000000000
310
000000000000000000000000E2E20000000000000000000000000000000000000000000000000000000000000000000000000000000000000000000000000000000000000000000000000000000000000000000000E2E200000000000000000000000000000000000000000000000000000000000000000000000000000000
310
00000000000000000000000000000000000000000000000000000000000000000000000000000000000000000000000000000000000000000000000000000000000000000000000000000000000000000000000000000000000000000000000000000000000000000000000000000000000000000000000000000000000000
310
00000000000000000000000000000000E2000000000000000000000000000000000000000000000000000000000000000000000000000000000000000000000000000000000000000000000000000000000000000000E200000000000000000000000000000000000000000000000000000000000000000000000000000000
310
00000000000000000000000000000000000000000000000000000000000000000000000000000000000000000000000000000000000000000000000000000000000000000000000000000000000000000000000000000000000000000000000000000000000000000000000000000000000000000000000000000000000000
310
00000000000000000000000000000000000000E200000000000000000000000000000000000000000000000000000000000000000000000000000000000000000000000000000000000000000000000000000000000000E2000000000000000000000000000000000000000000000000000000000000000000000000000000
310
00000000000000000000000000000000000000000000000000000000000000000000000000000000000000000000000000000000000000000000000000000000000000000000000000000000000000000000000000000000000000000000000000000000000000000000000000000000000000000000000000000000000000
310
00000000000000000000000000000000000000000000E2E2000000000000000000000000000000000000000000000000000000000000000000000000000000000000000000000000000000000000000000000000000000E2E20000000000000000000000000000000000000000000000000000000000000000000000000000
310
00000000000000000000000000000000000000000000000000000000000000000000000000000000000000000000000000000000000000000000000000000000000000000000000000000000000000000000000000000000000000000000000000000000000000000000000000000000000000000000000000000000000000
310
0000000000000000000000000000000000000000000000000000E200000000000000000000000000000000000000000000000000000000000000000000000000000000000000000000000000000000000000000000000000E20000000000000000000000000000000000000000000000000000000000000000000000000000
310
00000000000000000000000000000000000000000000000000000000000000000000000000000000000000000000000000000000000000000000000000000000000000000000000000000000000000000000000000000000000000000000000000000000000000000000000000000000000000000000000000000000000000
310
0000000000000000000000000000000000000000000000000000000000E2E2000000000000000000000000000000000000000000000000000000000000000000000000000000000000000000000000000000000000000000E2E200000000000000000000000000000000000000000000000000000000000000000000000000
310
00000000000000000000000000000000000000000000000000000000000000000000000000000000000000000000000000000000000000000000000000000000000000000000000000000000000000000000000000000000000000000000000000000000000000000000000000000000000000000000000000000000000000
310
000000000000000000000000000000000000000000000000000000000000000000E200000000000000000000000000000000000000000000000000000000000000000000000000000000000000000000000000000000000000E200000000000000000000000000000000000000000000000000000000000000000000000000
310
00000000000000000000000000000000000000000000000000000000000000000000000000000000000000000000000000000000000000000000000000000000000000000000000000000000000000000000000000000000000000000000000000000000000000000000000000000000000000000000000000000000000000
310
000000000000000000000000000000000000000000000000000000000000000000000000E20000000000000000000000000000000000000000000000000000000000000000000000000000000000000000000000000000000000E2000000000000000000000000000000000000000000000000000000000000000000000000
310
00000000000000000000000000000000000000000000000000000000000000000000000000000000000000000000000000000000000000000000000000000000000000000000000000000000000000000000000000000000000000000000000000000000000000000000000000000000000000000000000000000000000000
310
000000000000000000000000000000000000000000000000000000000000000000000000000000E2E200000000000000000000000000000000000000000000000000000000000000000000000000000000000000000000000000E2E20000000000000000000000000000000000000000000000000000000000000000000000
310
00000000000000000000000000000000000000000000000000000000000000000000000000000000000000000000000000000000000000000000000000000000000000000000000000000000000000000000000000000000000000000000000000000000000000000000000000000000000000000000000000000000000000
310
00000000000000000000000000000000000000000000000000000000000000000000000000000000000000E20000000000000000000000000000000000000000000000000000000000000000000000000000000000000000000000E20000000000000000000000000000000000000000000000000000000000000000000000
310
00000000000000000000000000000000000000000000000000000000000000000000000000000000000000000000000000000000000000000000000000000000000000000000000000000000000000000000000000000000000000000000000000000000000000000000000000000000000000000000000000000000000000
310
00000000000000000000000000000000000000000000000000000000000000000000000000000000000000000000E2E200000000000000000000000000000000000000000000000000000000000000000000000000000000000000E2E200000000000000000000000000000000000000000000000000000000000000000000
310
00000000000000000000000000000000000000000000000000000000000000000000000000000000000000000000000000000000000000000000000000000000000000000000000000000000000000000000000000000000000000000000000000000000000000000000000000000000000000000000000000000000000000
310
0000000000000000000000000000000000000000000000000000000000000000000000000000000000000000000000000000E20000000000000000000000000000000000000000000000000000000000000000000000000000000000E200000000000000000000000000000000000000000000000000000000000000000000
310
00000000000000000000000000000000000000000000000000000000000000000000000000000000000000000000000000000000000000000000000000000000000000000000000000000000000000000000000000000000000000000000000000000000000000000000000000000000000000000000000000000000000000
310
0000000000000000000000000000000000000000000000000000000000000000000000000000000000000000000000000000000000E2000000000000000000000000000000000000000000000000000000000000000000000000000000E2000000000000000000000000000000000000000000000000000000000000000000
310
00000000000000000000000000000000000000000000000000000000000000000000000000000000000000000000000000000000000000000000000000000000000000000000000000000000000000000000000000000000000000000000000000000000000000000000000000000000000000000000000000000000000000
310
0000000000000000000000000000000000000000000000000000000000000000000000000000000000000000000000000000000000000000E2E20000000000000000000000000000000000000000000000000000000000000000000000E2E20000000000000000000000000000000000000000000000000000000000000000
310
00000000000000000000000000000000000000000000000000000000000000000000000000000000000000000000000000000000000000000000000000000000000000000000000000000000000000000000000000000000000000000000000000000000000000000000000000000000000000000000000000000000000000
310
000000000000000000000000000000000000000000000000000000000000000000000000000000000000000000000000000000000000000000000000E2000000000000000000000000000000000000000000000000000000000000000000E20000000000000000000000000000000000000000000000000000000000000000
310
00000000000000000000000000000000000000000000000000000000000000000000000000000000000000000000000000000000000000000000000000000000000000000000000000000000000000000000000000000000000000000000000000000000000000000000000000000000000000000000000000000000000000
310
000000000000000000000000000000000000000000000000000000000000000000000000000000000000000000000000000000000000000000000000000000E2E20000000000000000000000000000000000000000000000000000000000E2E200000000000000000000000000000000000000000000000000000000000000
310
00000000000000000000000000000000000000000000000000000000000000000000000000000000000000000000000000000000000000000000000000000000000000000000000000000000000000000000000000000000000000000000000000000000000000000000000000000000000000000000000000000000000000
310
00000000000000000000000000000000000000000000000000000000000000000000000000000000000000000000000000000000000000000000000000000000000000E2000000000000000000000000000000000000000000000000000000E200000000000000000000000000000000000000000000000000000000000000
310
00000000000000000000000000000000000000000000000000000000000000000000000000000000000000000000000000000000000000000000000000000000000000000000000000000000000000000000000000000000000000000000000000000000000000000000000000000000000000000000000000000000000000
310
00000000000000000000000000000000000000000000000000000000000000000000000000000000000000000000000000000000000000000000000000000000000000000000E2E20000000000000000000000000000000000000000000000E2E2000000000000000000000000000000000000000000000000000000000000
310
00000000000000000000000000000000000000000000000000000000000000000000000000000000000000000000000000000000000000000000000000000000000000000000000000000000000000000000000000000000000000000000000000000000000000000000000000000000000000000000000000000000000000
310
0000000000000000000000000000000000000000000000000000000000000000000000000000000000000000000000000000000000000000000000000000000000000000000000000000E2000000000000000000000000000000000000000000E2000000000000000000000000000000000000000000000000000000000000
310
00000000000000000000000000000000000000000000000000000000000000000000000000000000000000000000000000000000000000000000000000000000000000000000000000000000000000000000000000000000000000000000000000000000000000000000000000000000000000000000000000000000000000
310
0000000000000000000000000000000000000000000000000000000000000000000000000000000000000000000000000000000000000000000000000000000000000000000000000000000000E200000000000000000000000000000000000000E20000000000000000000000000000000000000000000000000000000000
310
00000000000000000000000000000000000000000000000000000000000000000000000000000000000000000000000000000000000000000000000000000000000000000000000000000000000000000000000000000000000000000000000000000000000000000000000000000000000000000000000000000000000000
310
0000000000000000000000000000000000000000000000000000000000000000000000000000000000000000000000000000000000000000000000000000000000000000000000000000000000000000E2E2000000000000000000000000000000E2E200000000000000000000000000000000000000000000000000000000
310
00000000000000000000000000000000000000000000000000000000000000000000000000000000000000000000000000000000000000000000000000000000000000000000000000000000000000000000000000000000000000000000000000000000000000000000000000000000000000000000000000000000000000
310
000000000000000000000000000000000000000000000000000000000000000000000000000000000000000000000000000000000000000000000000000000000000000000000000000000000000000000000000E200000000000000000000000000E200000000000000000000000000000000000000000000000000000000
310
00000000000000000000000000000000000000000000000000000000000000000000000000000000000000000000000000000000000000000000000000000000000000000000000000000000000000000000000000000000000000000000000000000000000000000000000000000000000000000000000000000000000000
310
000000000000000000000000000000000000000000000000000000000000000000000000000000000000000000000000000000000000000000000000000000000000000000000000000000000000000000000000000000E2E2000000000000000000E2E2000000000000000000000000000000000000000000000000000000
310
00000000000000000000000000000000000000000000000000000000000000000000000000000000000000000000000000000000000000000000000000000000000000000000000000000000000000000000000000000000000000000000000000000000000000000000000000000000000000000000000000000000000000
310
00000000000000000000000000000000000000000000000000000000000000000000000000000000000000000000000000000000000000000000000000000000000000000000000000000000000000000000000000000000000000E200000000000000E2000000000000000000000000000000000000000000000000000000
310
00000000000000000000000000000000000000000000000000000000000000000000000000000000000000000000000000000000000000000000000000000000000000000000000000000000000000000000000000000000000000000000000000000000000000000000000000000000000000000000000000000000000000
310
00000000000000000000000000000000000000000000000000000000000000000000000000000000000000000000000000000000000000000000000000000000000000000000000000000000000000000000000000000000000000000000E20000000000E20000000000000000000000000000000000000000000000000000
310
00000000000000000000000000000000000000000000000000000000000000000000000000000000000000000000000000000000000000000000000000000000000000000000000000000000000000000000000000000000000000000000000000000000000000000000000000000000000000000000000000000000000000
310
00000000000000000000000000000000000000000000000000000000000000000000000000000000000000000000000000000000000000000000000000000000000000000000000000000000000000000000000000000000000000000000000000E2E200E2E200000000000000000000000000000000000000000000000000
310
00000000000000000000000000000000000000000000000000000000000000000000000000000000000000000000000000000000000000000000000000000000000000000000000000000000000000000000000000000000000000000000000000000000000000000000000000000000000000000000000000000000000000
310
0000000000000000000000000000000000000000000000000000000000000000000000000000000000000000000000000000000000000000000000000000000000000000000000000000000000000000000000000000000000000000000000000000000000E200000000000000000000000000000000000000000000000000
310
00000000000000000000000000000000000000000000000000000000000000000000000000000000000000000000000000000000000000000000000000000000000000000000000000000000000000000000000000000000000000000000000000000000000000000000000000000000000000000000000000000000000000
310
0000000000000000000000000000000000000000000000000000000000000000000000000000000000000000000000000000000000000000000000000000000000000000000000000000000000000000000000000000000000000000000000000000000000E2E200E2E2000000000000000000000000000000000000000000
310
00000000000000000000000000000000000000000000000000000000000000000000000000000000000000000000000000000000000000000000000000000000000000000000000000000000000000000000000000000000000000000000000000000000000000000000000000000000000000000000000000000000000000
310
000000000000000000000000000000000000000000000000000000000000000000000000000000000000000000000000000000000000000000000000000000000000000000000000000000000000000000000000000000000000000000000000000000000000E20000000000E2000000000000000000000000000000000000
310
00000000000000000000000000000000000000000000000000000000000000000000000000000000000000000000000000000000000000000000000000000000000000000000000000000000000000000000000000000000000000000000000000000000000000000000000000000000000000000000000000000000000000
310
00000000000000000000000000000000000000000000000000000000000000000000000000000000000000000000000000000000000000000000000000000000000000000000000000000000000000000000000000000000000000000000000000000000000000E200000000000000E2000000000000000000000000000000
310
00000000000000000000000000000000000000000000000000000000000000000000000000000000000000000000000000000000000000000000000000000000000000000000000000000000000000000000000000000000000000000000000000000000000000000000000000000000000000000000000000000000000000
310
00000000000000000000000000000000000000000000000000000000000000000000000000000000000000000000000000000000000000000000000000000000000000000000000000000000000000000000000000000000000000000000000000000000000000E2E2000000000000000000E2E20000000000000000000000
310
00000000000000000000000000000000000000000000000000000000000000000000000000000000000000000000000000000000000000000000000000000000000000000000000000000000000000000000000000000000000000000000000000000000000000000000000000000000000000000000000000000000000000
310
0000000000000000000000000000000000000000000000000000000000000000000000000000000000000000000000000000000000000000000000000000000000000000000000000000000000000000000000000000000000000000000000000000000000000000E200000000000000000000000000E20000000000000000
310
00000000000000000000000000000000000000000000000000000000000000000000000000000000000000000000000000000000000000000000000000000000000000000000000000000000000000000000000000000000000000000000000000000000000000000000000000000000000000000000000000000000000000
310
0000000000000000000000000000000000000000000000000000000000000000000000000000000000000000000000000000000000000000000000000000000000000000000000000000000000000000000000000000000000000000000000000000000000000000E2E2000000000000000000000000000000E2E200000000
310
00000000000000000000000000000000000000000000000000000000000000000000000000000000000000000000000000000000000000000000000000000000000000000000000000000000000000000000000000000000000000000000000000000000000000000000000000000000000000000000000000000000000000
310
000000000000000000000000000000000000000000000000000000000000000000000000000000000000000000000000000000000000000000000000000000000000000000000000000000000000000000000000000000000000000000000000000000000000000000E200000000000000000000000000000000000000E200
310
00000000000000000000000000000000000000000000000000000000000000000000000000000000000000000000000000000000000000000000000000000000000000000000000000000000000000000000000000000000000000000000000000000000000000000000000000000000000000000000000000000000000000
310
00000000000000000000000000000000000000000000000000000000000000000000000000000000000000000000000000000000000000000000000000000000000000000000000000000000000000000000000000000000000000000000000000000000000000000000E20000000000000000000000000000000000000000
310
00E20000000000000000000000000000000000000000000000000000000000000000000000000000000000000000000000000000000000000000000000000000000000000000000000000000000000000000000000000000000000000000000000000000000000000000000000000000000000000000000000000000000000
310
00000000000000000000000000000000000000000000000000000000000000000000000000000000000000000000000000000000000000000000000000000000000000000000000000000000000000000000000000000000000000000000000000000000000000000000E2E200000000000000000000000000000000000000
310
00000000E2E200000000000000000000000000000000000000000000000000000000000000000000000000000000000000000000000000000000000000000000000000000000000000000000000000000000000000000000000000000000000000000000000000000000000000000000000000000000000000000000000000
310
0000000000000000000000000000000000000000000000000000000000000000000000000000000000000000000000000000000000000000000000000000000000000000000000000000000000000000000000000000000000000000000000000000000000000000000000E200000000000000000000000000000000000000
310
0000000000000000E200000000000000000000000000000000000000000000000000000000000000000000000000000000000000000000000000000000000000000000000000000000000000000000000000000000000000000000000000000000000000000000000000000000000000000000000000000000000000000000
310
0000000000000000000000000000000000000000000000000000000000000000000000000000000000000000000000000000000000000000000000000000000000000000000000000000000000000000000000000000000000000000000000000000000000000000000000E2E2000000000000000000000000000000000000
310
0000000000000000000000E2E2000000000000000000000000000000000000000000000000000000000000000000000000000000000000000000000000000000000000000000000000000000000000000000000000000000000000000000000000000000000000000000000000000000000000000000000000000000000000
310
000000000000000000000000000000000000000000000000000000000000000000000000000000000000000000000000000000000000000000000000000000000000000000000000000000000000000000000000000000000000000000000000000000000000000000000000E2000000000000000000000000000000000000
310
000000000000000000000000000000E2000000000000000000000000000000000000000000000000000000000000000000000000000000000000000000000000000000000000000000000000000000000000000000000000000000000000000000000000000000000000000000000000000000000000000000000000000000
310
000000000000000000000000000000000000000000000000000000000000000000000000000000000000000000000000000000000000000000000000000000000000000000000000000000000000000000000000000000000000000000000000000000000000000000000000E2E20000000000000000000000000000000000
310
000000000000000000000000000000000000E2E20000000000000000000000000000000000000000000000000000000000000000000000000000000000000000000000000000000000000000000000000000000000000000000000000000000000000000000000000000000000000000000000000000000000000000000000
310
00000000000000000000000000000000000000000000000000000000000000000000000000000000000000000000000000000000000000000000000000000000000000000000000000000000000000000000000000000000000000000000000000000000000000000000000000E20000000000000000000000000000000000
310
00000000000000000000000000000000000000000000E20000000000000000000000000000000000000000000000000000000000000000000000000000000000000000000000000000000000000000000000000000000000000000000000000000000000000000000000000000000000000000000000000000000000000000
310
0000000000000000000000000000000000000000000000000000000000000000000000000000000000000000000000000000000000000000000000000000000000000000000000000000000000000000000000000000000000000000000000000000000000000000000000000000E200000000000000000000000000000000
310
00000000000000000000000000000000000000000000000000E20000000000000000000000000000000000000000000000000000000000000000000000000000000000000000000000000000000000000000000000000000000000000000000000000000000000000000000000000000000000000000000000000000000000
310
0000000000000000000000000000000000000000000000000000000000000000000000000000000000000000000000000000000000000000000000000000000000000000000000000000000000000000000000000000000000000000000000000000000000000000000000000000E2E2000000000000000000000000000000
310
00000000000000000000000000000000000000000000000000000000E2E200000000000000000000000000000000000000000000000000000000000000000000000000000000000000000000000000000000000000000000000000000000000000000000000000000000000000000000000000000000000000000000000000
310
000000000000000000000000000000000000000000000000000000000000000000000000000000000000000000000000000000000000000000000000000000000000000000000000000000000000000000000000000000000000000000000000000000000000000000000000000000E2000000000000000000000000000000
310
0000000000000000000000000000000000000000000000000000000000000000E200000000000000000000000000000000000000000000000000000000000000000000000000000000000000000000000000000000000000000000000000000000000000000000000000000000000000000000000000000000000000000000
310
000000000000000000000000000000000000000000000000000000000000000000000000000000000000000000000000000000000000000000000000000000000000000000000000000000000000000000000000000000000000000000000000000000000000000000000000000000E2E20000000000000000000000000000
310
0000000000000000000000000000000000000000000000000000000000000000000000E2E2000000000000000000000000000000000000000000000000000000000000000000000000000000000000000000000000000000000000000000000000000000000000000000000000000000000000000000000000000000000000
310
00000000000000000000000000000000000000000000000000000000000000000000000000000000000000000000000000000000000000000000000000000000000000000000000000000000000000000000000000000000000000000000000000000000000000000000000000000000E20000000000000000000000000000
310
000000000000000000000000000000000000000000000000000000000000000000000000000000E2000000000000000000000000000000000000000000000000000000000000000000000000000000000000000000000000000000000000000000000000000000000000000000000000000000000000000000000000000000
310
0000000000000000000000000000000000000000000000000000000000000000000000000000000000000000000000000000000000000000000000000000000000000000000000000000000000000000000000000000000000000000000000000000000000000000000000000000000000E200000000000000000000000000
310
000000000000000000000000000000000000000000000000000000000000000000000000000000000000E2000000000000000000000000000000000000000000000000000000000000000000000000000000000000000000000000000000000000000000000000000000000000000000000000000000000000000000000000
310
0000000000000000000000000000000000000000000000000000000000000000000000000000000000000000000000000000000000000000000000000000000000000000000000000000000000000000000000000000000000000000000000000000000000000000000000000000000000E2E2000000000000000000000000
310
000000000000000000000000000000000000000000000000000000000000000000000000000000000000000000E2E20000000000000000000000000000000000000000000000000000000000000000000000000000000000000000000000000000000000000000000000000000000000000000000000000000000000000000
310
000000000000000000000000000000000000000000000000000000000000000000000000000000000000000000000000000000000000000000000000000000000000000000000000000000000000000000000000000000000000000000000000000000000000000000000000000000000000E2000000000000000000000000
310
00000000000000000000000000000000000000000000000000000000000000000000000000000000000000000000000000E20000000000000000000000000000000000000000000000000000000000000000000000000000000000000000000000000000000000000000000000000000000000000000000000000000000000
310
000000000000000000000000000000000000000000000000000000000000000000000000000000000000000000000000000000000000000000000000000000000000000000000000000000000000000000000000000000000000000000000000000000000000000000000000000000000000E2E20000000000000000000000
310
00000000000000000000000000000000000000000000000000000000000000000000000000000000000000000000000000000000E2E200000000000000000000000000000000000000000000000000000000000000000000000000000000000000000000000000000000000000000000000000000000000000000000000000
310
00000000000000000000000000000000000000000000000000000000000000000000000000000000000000000000000000000000000000000000000000000000000000000000000000000000000000000000000000000000000000000000000000000000000000000000000000000000000000E20000000000000000000000
310
0000000000000000000000000000000000000000000000000000000000000000000000000000000000000000000000000000000000000000E200000000000000000000000000000000000000000000000000000000000000000000000000000000000000000000000000000000000000000000000000000000000000000000
310
0000000000000000000000000000000000000000000000000000000000000000000000000000000000000000000000000000000000000000000000000000000000000000000000000000000000000000000000000000000000000000000000000000000000000000000000000000000000000000E200000000000000000000
310
0000000000000000000000000000000000000000000000000000000000000000000000000000000000000000000000000000000000000000000000E200000000000000000000000000000000000000000000000000000000000000000000000000000000000000000000000000000000000000000000000000000000000000
310
0000000000000000000000000000000000000000000000000000000000000000000000000000000000000000000000000000000000000000000000000000000000000000000000000000000000000000000000000000000000000000000000000000000000000000000000000000000000000000E2E2000000000000000000
310
0000000000000000000000000000000000000000000000000000000000000000000000000000000000000000000000000000000000000000000000000000E2E2000000000000000000000000000000000000000000000000000000000000000000000000000000000000000000000000000000000000000000000000000000
310
000000000000000000000000000000000000000000000000000000000000000000000000000000000000000000000000000000000000000000000000000000000000000000000000000000000000000000000000000000000000000000000000000000000000000000000000000000000000000000E2000000000000000000
310
000000000000000000000000000000000000000000000000000000000000000000000000000000000000000000000000000000000000000000000000000000000000E2000000000000000000000000000000000000000000000000000000000000000000000000000000000000000000000000000000000000000000000000
310
000000000000000000000000000000000000000000000000000000000000000000000000000000000000000000000000000000000000000000000000000000000000000000000000000000000000000000000000000000000000000000000000000000000000000000000000000000000000000000E2E20000000000000000
310
000000000000000000000000000000000000000000000000000000000000000000000000000000000000000000000000000000000000000000000000000000000000000000E2E20000000000000000000000000000000000000000000000000000000000000000000000000000000000000000000000000000000000000000
310
00000000000000000000000000000000000000000000000000000000000000000000000000000000000000000000000000000000000000000000000000000000000000000000000000000000000000000000000000000000000000000000000000000000000000000000000000000000000000000000E20000000000000000
310
00000000000000000000000000000000000000000000000000000000000000000000000000000000000000000000000000000000000000000000000000000000000000000000000000E20000000000000000000000000000000000000000000000000000000000000000000000000000000000000000000000000000000000
310
00000000000000000000000000000000000000000000000000000000000000000000000000000000000000000000000000000000000000000000000000000000000000000000000000000000000000000000000000000000000000000000000000000000000000000000000000000000000000000000E2E200000000000000
310
00000000000000000000000000000000000000000000000000000000000000000000000000000000000000000000000000000000000000000000000000000000000000000000000000000000E2E200000000000000000000000000000000000000000000000000000000000000000000000000000000000000000000000000
310
0000000000000000000000000000000000000000000000000000000000000000000000000000000000000000000000000000000000000000000000000000000000000000000000000000000000000000000000000000000000000000000000000000000000000000000000000000000000000000000000E200000000000000
310
0000000000000000000000000000000000000000000000000000000000000000000000000000000000000000000000000000000000000000000000000000000000000000000000000000000000000000E200000000000000000000000000000000000000000000000000000000000000000000000000000000000000000000
310
000000000000000000000000000000000000000000000000000000000000000000000000000000000000000000000000000000000000000000000000000000000000000000000000000000000000000000000000000000000000000000000000000000000000000000000000000000000000000000000000E2000000000000
310
0000000000000000000000000000000000000000000000000000000000000000000000000000000000000000000000000000000000000000000000000000000000000000000000000000000000000000000000E200000000000000000000000000000000000000000000000000000000000000000000000000000000000000
310
000000000000000000000000000000000000000000000000000000000000000000000000000000000000000000000000000000000000000000000000000000000000000000000000000000000000000000000000000000000000000000000000000000000000000000000000000000000000000000000000E2E20000000000
310
0000000000000000000000000000000000000000000000000000000000000000000000000000000000000000000000000000000000000000000000000000000000000000000000000000000000000000000000000000E2E2000000000000000000000000000000000000000000000000000000000000000000000000000000
310
00000000000000000000000000000000000000000000000000000000000000000000000000000000000000000000000000000000000000000000000000000000000000000000000000000000000000000000000000000000000000000000000000000000000000000000000000000000000000000000000000E20000000000
310
000000000000000000000000000000000000000000000000000000000000000000000000000000000000000000000000000000000000000000000000000000000000000000000000000000000000000000000000000000000000E2000000000000000000000000000000000000000000000000000000000000000000000000
310
00000000000000000000000000000000000000000000000000000000000000000000000000000000000000000000000000000000000000000000000000000000000000000000000000000000000000000000000000000000000000000000000000000000000000000000000000000000000000000000000000E2E200000000
310
000000000000000000000000000000000000000000000000000000000000000000000000000000000000000000000000000000000000000000000000000000000000000000000000000000000000000000000000000000000000000000E2E20000000000000000000000000000000000000000000000000000000000000000
310
0000000000000000000000000000000000000000000000000000000000000000000000000000000000000000000000000000000000000000000000000000000000000000000000000000000000000000000000000000000000000000000000000000000000000000000000000000000000000000000000000000E200000000
310
00000000000000000000000000000000000000000000000000000000000000000000000000000000000000000000000000000000000000000000000000000000000000000000000000000000000000000000000000000000000000000000000000E20000000000000000000000000000000000000000000000000000000000
310
000000000000000000000000000000000000000000000000000000000000000000000000000000000000000000000000000000000000000000000000000000000000000000000000000000000000000000000000000000000000000000000000000000000000000000000000000000000000000000000000000000E2000000
310
00000000000000000000000000000000000000000000000000000000000000000000000000000000000000000000000000000000000000000000000000000000000000000000000000000000000000000000000000000000000000000000000000000000E20000000000000000000000000000000000000000000000000000
310
000000000000000000000000000000000000000000000000000000000000000000000000000000000000000000000000000000000000000000000000000000000000000000000000000000000000000000000000000000000000000000000000000000000000000000000000000000000000000000000000000000E2E20000
310
00000000000000000000000000000000000000000000000000000000000000000000000000000000000000000000000000000000000000000000000000000000000000000000000000000000000000000000000000000000000000000000000000000000000000E2E200000000000000000000000000000000000000000000
310
00000000000000000000000000000000000000000000000000000000000000000000000000000000000000000000000000000000000000000000000000000000000000000000000000000000000000000000000000000000000000000000000000000000000000000000000000000000000000000000000000000000E20000
310
0000000000000000000000000000000000000000000000000000000000000000000000000000000000000000000000000000000000000000000000000000000000000000000000000000000000000000000000000000000000000000000000000000000000000000000000E200000000000000000000000000000000000000
310
00000000000000000000000000000000000000000000000000000000000000000000000000000000000000000000000000000000000000000000000000000000000000000000000000000000000000000000000000000000000000000000000000000000000000000000000000000000000000000000000000000000E2E200
310
0000000000000000000000000000000000000000000000000000000000000000000000000000000000000000000000000000000000000000000000000000000000000000000000000000000000000000000000000000000000000000000000000000000000000000000000000000E2E2000000000000000000000000000000
310
0000000000000000000000000000000000000000000000000000000000000000000000000000000000000000000000000000000000000000000000000000000000000000000000000000000000000000000000000000000000000000000000000000000000000000000000000000000000000000000000000000000000E200
310
000000000000000000000000000000000000000000000000000000000000000000000000000000000000000000000000000000000000000000000000000000000000000000000000000000000000000000000000000000000000000000000000000000000000000000000000000000000000E2000000000000000000000000
310
000000000000000000000000000000000000000000000000000000000000000000000000000000000000000000000000000000000000000000000000000000000000000000000000000000000000000000000000000000000000000000000000000000000000000000000000000000000000000000000000000000000000E2
310
000000000000000000000000000000000000000000000000000000000000000000000000000000000000000000000000000000000000000000000000000000000000000000000000000000000000000000000000000000000000000000000000000000000000000000000000000000000000000000E2000000000000000000
310
000000000000000000000000000000000000000000000000000000000000000000000000000000000000000000000000000000000000000000000000000000000000000000000000000000000000000000000000000000000000000000000000000000000000000000000000000000000000000000000000000000000000E2
310
E20000000000000000000000000000000000000000000000000000000000000000000000000000000000000000000000000000000000000000000000000000000000000000000000000000000000000000000000000000000000000000000000000000000000000000000000000000000000000000000000E2E20000000000
310
00000000000000000000000000000000000000000000000000000000000000000000000000000000000000000000000000000000000000000000000000000000000000000000000000000000000000000000000000000000000000000000000000000000000000000000000000000000000000000000000000000000000000
310
E2000000000000000000000000000000000000000000000000000000000000000000000000000000000000000000000000000000000000000000000000000000000000000000000000000000000000000000000000000000000000000000000000000000000000000000000000000000000000000000000000000000E20000
310
00000000000000000000000000000000000000000000000000000000000000000000000000000000000000000000000000000000000000000000000000000000000000000000000000000000000000000000000000000000000000000000000000000000000000000000000000000000000000000000000000000000000000
310
E2E20000000000000000000000000000000000000000000000000000000000000000000000000000000000000000000000000000000000000000000000000000000000000000000000000000000000000000000000000000000000000000000000000000000000000000000000000000000000000000000000000000000000
310
E2E20000000000000000000000000000000000000000000000000000000000000000000000000000000000000000000000000000000000000000000000000000000000000000000000000000000000000000000000000000000000000000000000000000000000000000000000000000000000000000000000000000000000
310
00E20000000000000000000000000000000000000000000000000000000000000000000000000000000000000000000000000000000000000000000000000000000000000000000000000000000000000000000000000000000000000000000000000000000000000000000000000000000000000000000000000000000000
310
00000000E20000000000000000000000000000000000000000000000000000000000000000000000000000000000000000000000000000000000000000000000000000000000000000000000000000000000000000000000000000000000000000000000000000000000000000000000000000000000000000000000000000
310
00E2E200000000000000000000000000000000000000000000000000000000000000000000000000000000000000000000000000000000000000000000000000000000000000000000000000000000000000000000000000000000000000000000000000000000000000000000000000000000000000000000000000000000
310
00000000000000E2E200000000000000000000000000000000000000000000000000000000000000000000000000000000000000000000000000000000000000000000000000000000000000000000000000000000000000000000000000000000000000000000000000000000000000000000000000000000000000000000
310
0000E200000000000000000000000000000000000000000000000000000000000000000000000000000000000000000000000000000000000000000000000000000000000000000000000000000000000000000000000000000000000000000000000000000000000000000000000000000000000000000000000000000000
310
0000000000000000000000E200000000000000000000000000000000000000000000000000000000000000000000000000000000000000000000000000000000000000000000000000000000000000000000000000000000000000000000000000000000000000000000000000000000000000000000000000000000000000
310
000000E2000000000000000000000000000000000000000000000000000000000000000000000000000000000000000000000000000000000000000000000000000000000000000000000000000000000000000000000000000000000000000000000000000000000000000000000000000000000000000000000000000000
310
0000000000000000000000000000E200000000000000000000000000000000000000000000000000000000000000000000000000000000000000000000000000000000000000000000000000000000000000000000000000000000000000000000000000000000000000000000000000000000000000000000000000000000
310
000000E2E20000000000000000000000000000000000000000000000000000000000000000000000000000000000000000000000000000000000000000000000000000000000000000000000000000000000000000000000000000000000000000000000000000000000000000000000000000000000000000000000000000
310
0000000000000000000000000000000000E2E2000000000000000000000000000000000000000000000000000000000000000000000000000000000000000000000000000000000000000000000000000000000000000000000000000000000000000000000000000000000000000000000000000000000000000000000000
310
00000000E20000000000000000000000000000000000000000000000000000000000000000000000000000000000000000000000000000000000000000000000000000000000000000000000000000000000000000000000000000000000000000000000000000000000000000000000000000000000000000000000000000
310
000000000000000000000000000000000000000000E2000000000000000000000000000000000000000000000000000000000000000000000000000000000000000000000000000000000000000000000000000000000000000000000000000000000000000000000000000000000000000000000000000000000000000000
310
00000000E2E200000000000000000000000000000000000000000000000000000000000000000000000000000000000000000000000000000000000000000000000000000000000000000000000000000000000000000000000000000000000000000000000000000000000000000000000000000000000000000000000000
310
000000000000000000000000000000000000000000000000E2E20000000000000000000000000000000000000000000000000000000000000000000000000000000000000000000000000000000000000000000000000000000000000000000000000000000000000000000000000000000000000000000000000000000000
310
0000000000E200000000000000000000000000000000000000000000000000000000000000000000000000000000000000000000000000000000000000000000000000000000000000000000000000000000000000000000000000000000000000000000000000000000000000000000000000000000000000000000000000
310
00000000000000000000000000000000000000000000000000000000E20000000000000000000000000000000000000000000000000000000000000000000000000000000000000000000000000000000000000000000000000000000000000000000000000000000000000000000000000000000000000000000000000000
310
000000000000E2000000000000000000000000000000000000000000000000000000000000000000000000000000000000000000000000000000000000000000000000000000000000000000000000000000000000000000000000000000000000000000000000000000000000000000000000000000000000000000000000
310
00000000000000000000000000000000000000000000000000000000000000E20000000000000000000000000000000000000000000000000000000000000000000000000000000000000000000000000000000000000000000000000000000000000000000000000000000000000000000000000000000000000000000000
310
000000000000E2E20000000000000000000000000000000000000000000000000000000000000000000000000000000000000000000000000000000000000000000000000000000000000000000000000000000000000000000000000000000000000000000000000000000000000000000000000000000000000000000000
310
00000000000000000000000000000000000000000000000000000000000000000000E2E200000000000000000000000000000000000000000000000000000000000000000000000000000000000000000000000000000000000000000000000000000000000000000000000000000000000000000000000000000000000000
310
00000000000000E20000000000000000000000000000000000000000000000000000000000000000000000000000000000000000000000000000000000000000000000000000000000000000000000000000000000000000000000000000000000000000000000000000000000000000000000000000000000000000000000
310
0000000000000000000000000000000000000000000000000000000000000000000000000000E200000000000000000000000000000000000000000000000000000000000000000000000000000000000000000000000000000000000000000000000000000000000000000000000000000000000000000000000000000000
310
00000000000000E2E200000000000000000000000000000000000000000000000000000000000000000000000000000000000000000000000000000000000000000000000000000000000000000000000000000000000000000000000000000000000000000000000000000000000000000000000000000000000000000000
310
0000000000000000000000000000000000000000000000000000000000000000000000000000000000E2E2000000000000000000000000000000000000000000000000000000000000000000000000000000000000000000000000000000000000000000000000000000000000000000000000000000000000000000000000
310
0000000000000000E200000000000000000000000000000000000000000000000000000000000000000000000000000000000000000000000000000000000000000000000000000000000000000000000000000000000000000000000000000000000000000000000000000000000000000000000000000000000000000000
310
000000000000000000000000000000000000000000000000000000000000000000000000000000000000000000E2000000000000000000000000000000000000000000000000000000000000000000000000000000000000000000000000000000000000000000000000000000000000000000000000000000000000000000
310
000000000000000000E2000000000000000000000000000000000000000000000000000000000000000000000000000000000000000000000000000000000000000000000000000000000000000000000000000000000000000000000000000000000000000000000000000000000000000000000000000000000000000000
310
000000000000000000000000000000000000000000000000000000000000000000000000000000000000000000000000E2000000000000000000000000000000000000000000000000000000000000000000000000000000000000000000000000000000000000000000000000000000000000000000000000000000000000
310
000000000000000000E2E20000000000000000000000000000000000000000000000000000000000000000000000000000000000000000000000000000000000000000000000000000000000000000000000000000000000000000000000000000000000000000000000000000000000000000000000000000000000000000
310
000000000000000000000000000000000000000000000000000000000000000000000000000000000000000000000000000000E2E20000000000000000000000000000000000000000000000000000000000000000000000000000000000000000000000000000000000000000000000000000000000000000000000000000
310
00000000000000000000E20000000000000000000000000000000000000000000000000000000000000000000000000000000000000000000000000000000000000000000000000000000000000000000000000000000000000000000000000000000000000000000000000000000000000000000000000000000000000000
310
00000000000000000000000000000000000000000000000000000000000000000000000000000000000000000000000000000000000000E20000000000000000000000000000000000000000000000000000000000000000000000000000000000000000000000000000000000000000000000000000000000000000000000
310
00000000000000000000E2E200000000000000000000000000000000000000000000000000000000000000000000000000000000000000000000000000000000000000000000000000000000000000000000000000000000000000000000000000000000000000000000000000000000000000000000000000000000000000
310
00000000000000000000000000000000000000000000000000000000000000000000000000000000000000000000000000000000000000000000E2E200000000000000000000000000000000000000000000000000000000000000000000000000000000000000000000000000000000000000000000000000000000000000
310
0000000000000000000000E200000000000000000000000000000000000000000000000000000000000000000000000000000000000000000000000000000000000000000000000000000000000000000000000000000000000000000000000000000000000000000000000000000000000000000000000000000000000000
310
0000000000000000000000000000000000000000000000000000000000000000000000000000000000000000000000000000000000000000000000000000E200000000000000000000000000000000000000000000000000000000000000000000000000000000000000000000000000000000000000000000000000000000
310
0000000000000000000000E2E2000000000000000000000000000000000000000000000000000000000000000000000000000000000000000000000000000000000000000000000000000000000000000000000000000000000000000000000000000000000000000000000000000000000000000000000000000000000000
310
0000000000000000000000000000000000000000000000000000000000000000000000000000000000000000000000000000000000000000000000000000000000E2E2000000000000000000000000000000000000000000000000000000000000000000000000000000000000000000000000000000000000000000000000
310
000000000000000000000000E2000000000000000000000000000000000000000000000000000000000000000000000000000000000000000000000000000000000000000000000000000000000000000000000000000000000000000000000000000000000000000000000000000000000000000000000000000000000000
310
000000000000000000000000000000000000000000000000000000000000000000000000000000000000000000000000000000000000000000000000000000000000000000E2000000000000000000000000000000000000000000000000000000000000000000000000000000000000000000000000000000000000000000
310
00000000000000000000000000E20000000000000000000000000000000000000000000000000000000000000000000000000000000000000000000000000000000000000000000000000000000000000000000000000000000000000000000000000000000000000000000000000000000000000000000000000000000000
310
000000000000000000000000000000000000000000000000000000000000000000000000000000000000000000000000000000000000000000000000000000000000000000000000E2000000000000000000000000000000000000000000000000000000000000000000000000000000000000000000000000000000000000
310
00000000000000000000000000E2E200000000000000000000000000000000000000000000000000000000000000000000000000000000000000000000000000000000000000000000000000000000000000000000000000000000000000000000000000000000000000000000000000000000000000000000000000000000
310
000000000000000000000000000000000000000000000000000000000000000000000000000000000000000000000000000000000000000000000000000000000000000000000000000000E2E20000000000000000000000000000000000000000000000000000000000000000000000000000000000000000000000000000
310
0000000000000000000000000000E200000000000000000000000000000000000000000000000000000000000000000000000000000000000000000000000000000000000000000000000000000000000000000000000000000000000000000000000000000000000000000000000000000000000000000000000000000000
310
00000000000000000000000000000000000000000000000000000000000000000000000000000000000000000000000000000000000000000000000000000000000000000000000000000000000000E20000000000000000000000000000000000000000000000000000000000000000000000000000000000000000000000
310
0000000000000000000000000000E2E2000000000000000000000000000000000000000000000000000000000000000000000000000000000000000000000000000000000000000000000000000000000000000000000000000000000000000000000000000000000000000000000000000000000000000000000000000000
310
00000000000000000000000000000000000000000000000000000000000000000000000000000000000000000000000000000000000000000000000000000000000000000000000000000000000000000000E2E200000000000000000000000000000000000000000000000000000000000000000000000000000000000000
310
000000000000000000000000000000E2000000000000000000000000000000000000000000000000000000000000000000000000000000000000000000000000000000000000000000000000000000000000000000000000000000000000000000000000000000000000000000000000000000000000000000000000000000
310
0000000000000000000000000000000000000000000000000000000000000000000000000000000000000000000000000000000000000000000000000000000000000000000000000000000000000000000000000000E200000000000000000000000000000000000000000000000000000000000000000000000000000000
310
00000000000000000000000000000000E20000000000000000000000000000000000000000000000000000000000000000000000000000000000000000000000000000000000000000000000000000000000000000000000000000000000000000000000000000000000000000000000000000000000000000000000000000
310
0000000000000000000000000000000000000000000000000000000000000000000000000000000000000000000000000000000000000000000000000000000000000000000000000000000000000000000000000000000000E200000000000000000000000000000000000000000000000000000000000000000000000000
310
00000000000000000000000000000000E2E200000000000000000000000000000000000000000000000000000000000000000000000000000000000000000000000000000000000000000000000000000000000000000000000000000000000000000000000000000000000000000000000000000000000000000000000000
310
0000000000000000000000000000000000000000000000000000000000000000000000000000000000000000000000000000000000000000000000000000000000000000000000000000000000000000000000000000000000000000E2E2000000000000000000000000000000000000000000000000000000000000000000
310
0000000000000000000000000000000000E200000000000000000000000000000000000000000000000000000000000000000000000000000000000000000000000000000000000000000000000000000000000000000000000000000000000000000000000000000000000000000000000000000000000000000000000000
310
000000000000000000000000000000000000000000000000000000000000000000000000000000000000000000000000000000000000000000000000000000000000000000000000000000000000000000000000000000000000000000000000E2000000000000000000000000000000000000000000000000000000000000
310
0000000000000000000000000000000000E2E2000000000000000000000000000000000000000000000000000000000000000000000000000000000000000000000000000000000000000000000000000000000000000000000000000000000000000000000000000000000000000000000000000000000000000000000000
310
000000000000000000000000000000000000000000000000000000000000000000000000000000000000000000000000000000000000000000000000000000000000000000000000000000000000000000000000000000000000000000000000000000E2E20000000000000000000000000000000000000000000000000000
310
000000000000000000000000000000000000E2000000000000000000000000000000000000000000000000000000000000000000000000000000000000000000000000000000000000000000000000000000000000000000000000000000000000000000000000000000000000000000000000000000000000000000000000
310
00000000000000000000000000000000000000000000000000000000000000000000000000000000000000000000000000000000000000000000000000000000000000000000000000000000000000000000000000000000000000000000000000000000000000E20000000000000000000000000000000000000000000000
310
00000000000000000000000000000000000000E20000000000000000000000000000000000000000000000000000000000000000000000000000000000000000000000000000000000000000000000000000000000000000000000000000000000000000000000000000000000000000000000000000000000000000000000
310
00000000000000000000000000000000000000000000000000000000000000000000000000000000000000000000000000000000000000000000000000000000000000000000000000000000000000000000000000000000000000000000000000000000000000000000E20000000000000000000000000000000000000000
310
00000000000000000000000000000000000000E2E200000000000000000000000000000000000000000000000000000000000000000000000000000000000000000000000000000000000000000000000000000000000000000000000000000000000000000000000000000000000000000000000000000000000000000000
310
00000000000000000000000000000000000000000000000000000000000000000000000000000000000000000000000000000000000000000000000000000000000000000000000000000000000000000000000000000000000000000000000000000000000000000000000000E2E200000000000000000000000000000000
310
0000000000000000000000000000000000000000E200000000000000000000000000000000000000000000000000000000000000000000000000000000000000000000000000000000000000000000000000000000000000000000000000000000000000000000000000000000000000000000000000000000000000000000
310
0000000000000000000000000000000000000000000000000000000000000000000000000000000000000000000000000000000000000000000000000000000000000000000000000000000000000000000000000000000000000000000000000000000000000000000000000000000000E200000000000000000000000000
310
0000000000000000000000000000000000000000E2E2000000000000000000000000000000000000000000000000000000000000000000000000000000000000000000000000000000000000000000000000000000000000000000000000000000000000000000000000000000000000000000000000000000000000000000
310
0000000000000000000000000000000000000000000000000000000000000000000000000000000000000000000000000000000000000000000000000000000000000000000000000000000000000000000000000000000000000000000000000000000000000000000000000000000000000000E2E2000000000000000000
310
000000000000000000000000000000000000000000E2000000000000000000000000000000000000000000000000000000000000000000000000000000000000000000000000000000000000000000000000000000000000000000000000000000000000000000000000000000000000000000000000000000000000000000
310
000000000000000000000000000000000000000000000000000000000000000000000000000000000000000000000000000000000000000000000000000000000000000000000000000000000000000000000000000000000000000000000000000000000000000000000000000000000000000000000000E2000000000000
310
000000000000000000000000000000000000000000E2E20000000000000000000000000000000000000000000000000000000000000000000000000000000000000000000000000000000000000000000000000000000000000000000000000000000000000000000000000000000000000000000000000000000000000000
310
000000000000000000000000000000000000000000000000000000000000000000000000000000000000000000000000000000000000000000000000000000000000000000000000000000000000000000000000000000000000000000000000000000000000000000000000000000000000000000000000000000E2E20000
310
00000000000000000000000000000000000000000000E20000000000000000000000000000000000000000000000000000000000000000000000000000000000000000000000000000000000000000000000000000000000000000000000000000000000000000000000000000000000000000000000000000000000000000
310
00000000000000000000000000000000000000000000000000000000000000000000000000000000000000000000000000000000000000000000000000000000000000000000000000000000000000000000000000000000000000000000000000000000000000000000000000000000000000000000000000000000000000
310
E200000000000000000000000000000000000000000000E200000000000000000000000000000000000000000000000000000000000000000000000000000000000000000000000000000000000000000000000000000000000000000000000000000000000000000000000000000000000000000000000000000000000000
310
00000000000000000000000000000000000000000000000000000000000000000000000000000000000000000000000000000000000000000000000000000000000000000000000000000000000000000000000000000000000000000000000000000000000000000000000000000000000000000000000000000000000000
310
000000E200000000000000000000000000000000000000E2E2000000000000000000000000000000000000000000000000000000000000000000000000000000000000000000000000000000000000000000000000000000000000000000000000000000000000000000000000000000000000000000000000000000000000
310
00000000000000000000000000000000000000000000000000000000000000000000000000000000000000000000000000000000000000000000000000000000000000000000000000000000000000000000000000000000000000000000000000000000000000000000000000000000000000000000000000000000000000
310
000000000000E2E200000000000000000000000000000000E2000000000000000000000000000000000000000000000000000000000000000000000000000000000000000000000000000000000000000000000000000000000000000000000000000000000000000000000000000000000000000000000000000000000000
310
00000000000000000000000000000000000000000000000000000000000000000000000000000000000000000000000000000000000000000000000000000000000000000000000000000000000000000000000000000000000000000000000000000000000000000000000000000000000000000000000000000000000000
310
00000000000000000000E200000000000000000000000000E2E20000000000000000000000000000000000000000000000000000000000000000000000000000000000000000000000000000000000000000000000000000000000000000000000000000000000000000000000000000000000000000000000000000000000
310
00000000000000000000000000000000000000000000000000000000000000000000000000000000000000000000000000000000000000000000000000000000000000000000000000000000000000000000000000000000000000000000000000000000000000000000000000000000000000000000000000000000000000
310
00000000000000000000000000E2E200000000000000000000E20000000000000000000000000000000000000000000000000000000000000000000000000000000000000000000000000000000000000000000000000000000000000000000000000000000000000000000000000000000000000000000000000000000000
310
00000000000000000000000000000000000000000000000000000000000000000000000000000000000000000000000000000000000000000000000000000000000000000000000000000000000000000000000000000000000000000000000000000000000000000000000000000000000000000000000000000000000000
310
0000000000000000000000000000000000E20000000000000000E200000000000000000000000000000000000000000000000000000000000000000000000000000000000000000000000000000000000000000000000000000000000000000000000000000000000000000000000000000000000000000000000000000000
310
00000000000000000000000000000000000000000000000000000000000000000000000000000000000000000000000000000000000000000000000000000000000000000000000000000000000000000000000000000000000000000000000000000000000000000000000000000000000000000000000000000000000000
310
0000000000000000000000000000000000000000E20000000000E2E2000000000000000000000000000000000000000000000000000000000000000000000000000000000000000000000000000000000000000000000000000000000000000000000000000000000000000000000000000000000000000000000000000000
310
00000000000000000000000000000000000000000000000000000000000000000000000000000000000000000000000000000000000000000000000000000000000000000000000000000000000000000000000000000000000000000000000000000000000000000000000000000000000000000000000000000000000000
310
0000000000000000000000000000000000000000000000E2E20000E2000000000000000000000000000000000000000000000000000000000000000000000000000000000000000000000000000000000000000000000000000000000000000000000000000000000000000000000000000000000000000000000000000000
310
00000000000000000000000000000000000000000000000000000000000000000000000000000000000000000000000000000000000000000000000000000000000000000000000000000000000000000000000000000000000000000000000000000000000000000000000000000000000000000000000000000000000000
310
000000000000000000000000000000000000000000000000000000E200
  0
XRECORD
  5
83A
102
{ACAD_REACTORS
330
838
102
}
330
838
100
AcDbXrecord
280
     1
270
     1
271
     1
  0
XRECORD
  5
839
102
{ACAD_REACTORS
330
838
102
}
330
838
100
AcDbXrecord
280
     1
270
     1
271
     1
  0
XRECORD
  5
83D
102
{ACAD_REACTORS
330
838
102
}
330
838
100
AcDbXrecord
280
     1
270
     1
271
     1
  0
XRECORD
  5
83C
102
{ACAD_REACTORS
330
838
102
}
330
838
100
AcDbXrecord
280
     1
270
     1
271
     1
  0
XRECORD
  5
83E
102
{ACAD_REACTORS
330
838
102
}
330
838
100
AcDbXrecord
280
     1
270
     1
271
     1
  0
XRECORD
  5
83B
102
{ACAD_REACTORS
330
838
102
}
330
838
100
AcDbXrecord
280
     1
270
     1
271
     1
  0
XRECORD
  5
832
102
{ACAD_REACTORS
330
830
102
}
330
830
100
AcDbXrecord
280
     1
270
     1
271
     1
  0
XRECORD
  5
831
102
{ACAD_REACTORS
330
830
102
}
330
830
100
AcDbXrecord
280
     1
270
     1
271
     1
  0
XRECORD
  5
835
102
{ACAD_REACTORS
330
830
102
}
330
830
100
AcDbXrecord
280
     1
270
     1
271
     1
  0
XRECORD
  5
834
102
{ACAD_REACTORS
330
830
102
}
330
830
100
AcDbXrecord
280
     1
270
     1
271
     1
  0
XRECORD
  5
836
102
{ACAD_REACTORS
330
830
102
}
330
830
100
AcDbXrecord
280
     1
270
     1
271
     1
  0
XRECORD
  5
833
102
{ACAD_REACTORS
330
830
102
}
330
830
100
AcDbXrecord
280
     1
270
     1
271
     1
  0
XRECORD
  5
842
102
{ACAD_REACTORS
330
840
102
}
330
840
100
AcDbXrecord
280
     1
270
     1
271
     1
  0
XRECORD
  5
841
102
{ACAD_REACTORS
330
840
102
}
330
840
100
AcDbXrecord
280
     1
270
     1
271
     1
  0
XRECORD
  5
845
102
{ACAD_REACTORS
330
840
102
}
330
840
100
AcDbXrecord
280
     1
270
     1
271
     1
  0
XRECORD
  5
844
102
{ACAD_REACTORS
330
840
102
}
330
840
100
AcDbXrecord
280
     1
270
     1
271
     1
  0
XRECORD
  5
846
102
{ACAD_REACTORS
330
840
102
}
330
840
100
AcDbXrecord
280
     1
270
     1
271
     1
  0
XRECORD
  5
843
102
{ACAD_REACTORS
330
840
102
}
330
840
100
AcDbXrecord
280
     1
270
     1
271
     1
  0
XRECORD
  5
14CC
102
{ACAD_REACTORS
330
14CB
102
}
330
14CB
100
AcDbXrecord
280
     1
102
DISPLAYNAME
  1
Metric50
102
FLAGS
 90
        0
  0
CELLSTYLEMAP
  5
1498
102
{ACAD_REACTORS
330
AF4
102
}
330
AF4
100
AcDbCellStyleMap
 90
        3
300
CELLSTYLE
  1
TABLEFORMAT_BEGIN
 90
        5
170
     1
 91
        0
 92
    32768
 62
   257
 93
        1
300
CONTENTFORMAT
  1
CONTENTFORMAT_BEGIN
 90
        0
 91
        0
 92
      512
 93
        0
300

 40
0.0
140
1.0
 94
        5
 62
     0
340
11
144
6.0
309
CONTENTFORMAT_END
171
     1
301
MARGIN
  1
CELLMARGIN_BEGIN
 40
1.5
 40
1.5
 40
1.5
 40
1.5
 40
0.18
 40
0.18
309
CELLMARGIN_END
 94
        6
 95
        1
302
GRIDFORMAT
  1
GRIDFORMAT_BEGIN
 90
        0
 91
        1
 62
     0
 92
       -2
340
0
 93
        0
 40
1.125
309
GRIDFORMAT_END
 95
        2
302
GRIDFORMAT
  1
GRIDFORMAT_BEGIN
 90
        0
 91
        1
 62
     0
 92
       -2
340
0
 93
        0
 40
1.125
309
GRIDFORMAT_END
 95
        4
302
GRIDFORMAT
  1
GRIDFORMAT_BEGIN
 90
        0
 91
        1
 62
     0
 92
       -2
340
0
 93
        0
 40
1.125
309
GRIDFORMAT_END
 95
        8
302
GRIDFORMAT
  1
GRIDFORMAT_BEGIN
 90
        0
 91
        1
 62
     0
 92
       -2
340
0
 93
        0
 40
1.125
309
GRIDFORMAT_END
 95
       16
302
GRIDFORMAT
  1
GRIDFORMAT_BEGIN
 90
        0
 91
        1
 62
     0
 92
       -2
340
0
 93
        0
 40
1.125
309
GRIDFORMAT_END
 95
       32
302
GRIDFORMAT
  1
GRIDFORMAT_BEGIN
 90
        0
 91
        1
 62
     0
 92
       -2
340
0
 93
        0
 40
1.125
309
GRIDFORMAT_END
309
TABLEFORMAT_END
  1
CELLSTYLE_BEGIN
 90
        1
 91
        1
300
_TITLE
309
CELLSTYLE_END
300
CELLSTYLE
  1
TABLEFORMAT_BEGIN
 90
        5
170
     1
 91
        0
 92
        0
 62
   257
 93
        1
300
CONTENTFORMAT
  1
CONTENTFORMAT_BEGIN
 90
        0
 91
        0
 92
      512
 93
        0
300

 40
0.0
140
1.0
 94
        5
 62
     0
340
11
144
4.5
309
CONTENTFORMAT_END
171
     1
301
MARGIN
  1
CELLMARGIN_BEGIN
 40
1.5
 40
1.5
 40
1.5
 40
1.5
 40
0.18
 40
0.18
309
CELLMARGIN_END
 94
        6
 95
        1
302
GRIDFORMAT
  1
GRIDFORMAT_BEGIN
 90
        0
 91
        1
 62
     0
 92
       -2
340
0
 93
        0
 40
1.125
309
GRIDFORMAT_END
 95
        2
302
GRIDFORMAT
  1
GRIDFORMAT_BEGIN
 90
        0
 91
        1
 62
     0
 92
       -2
340
0
 93
        0
 40
1.125
309
GRIDFORMAT_END
 95
        4
302
GRIDFORMAT
  1
GRIDFORMAT_BEGIN
 90
        0
 91
        1
 62
     0
 92
       -2
340
0
 93
        0
 40
1.125
309
GRIDFORMAT_END
 95
        8
302
GRIDFORMAT
  1
GRIDFORMAT_BEGIN
 90
        0
 91
        1
 62
     0
 92
       -2
340
0
 93
        0
 40
1.125
309
GRIDFORMAT_END
 95
       16
302
GRIDFORMAT
  1
GRIDFORMAT_BEGIN
 90
        0
 91
        1
 62
     0
 92
       -2
340
0
 93
        0
 40
1.125
309
GRIDFORMAT_END
 95
       32
302
GRIDFORMAT
  1
GRIDFORMAT_BEGIN
 90
        0
 91
        1
 62
     0
 92
       -2
340
0
 93
        0
 40
1.125
309
GRIDFORMAT_END
309
TABLEFORMAT_END
  1
CELLSTYLE_BEGIN
 90
        2
 91
        1
300
_HEADER
309
CELLSTYLE_END
300
CELLSTYLE
  1
TABLEFORMAT_BEGIN
 90
        5
170
     1
 91
        0
 92
        0
 62
   257
 93
        1
300
CONTENTFORMAT
  1
CONTENTFORMAT_BEGIN
 90
        0
 91
        0
 92
      512
 93
        0
300

 40
0.0
140
1.0
 94
        2
 62
     0
340
11
144
4.5
309
CONTENTFORMAT_END
171
     1
301
MARGIN
  1
CELLMARGIN_BEGIN
 40
1.5
 40
1.5
 40
1.5
 40
1.5
 40
0.18
 40
0.18
309
CELLMARGIN_END
 94
        6
 95
        1
302
GRIDFORMAT
  1
GRIDFORMAT_BEGIN
 90
        0
 91
        1
 62
     0
 92
       -2
340
0
 93
        0
 40
1.125
309
GRIDFORMAT_END
 95
        2
302
GRIDFORMAT
  1
GRIDFORMAT_BEGIN
 90
        0
 91
        1
 62
     0
 92
       -2
340
0
 93
        0
 40
1.125
309
GRIDFORMAT_END
 95
        4
302
GRIDFORMAT
  1
GRIDFORMAT_BEGIN
 90
        0
 91
        1
 62
     0
 92
       -2
340
0
 93
        0
 40
1.125
309
GRIDFORMAT_END
 95
        8
302
GRIDFORMAT
  1
GRIDFORMAT_BEGIN
 90
        0
 91
        1
 62
     0
 92
       -2
340
0
 93
        0
 40
1.125
309
GRIDFORMAT_END
 95
       16
302
GRIDFORMAT
  1
GRIDFORMAT_BEGIN
 90
        0
 91
        1
 62
     0
 92
       -2
340
0
 93
        0
 40
1.125
309
GRIDFORMAT_END
 95
       32
302
GRIDFORMAT
  1
GRIDFORMAT_BEGIN
 90
        0
 91
        1
 62
     0
 92
       -2
340
0
 93
        0
 40
1.125
309
GRIDFORMAT_END
309
TABLEFORMAT_END
  1
CELLSTYLE_BEGIN
 90
        3
 91
        2
300
_DATA
309
CELLSTYLE_END
  0
XRECORD
  5
14A6
102
{ACAD_REACTORS
330
14A5
102
}
330
14A5
100
AcDbXrecord
280
     1
102
RTVSPost2010Prop28
280
     1
102
RTVSPost2010PropOp28
 70
     1
102
RTVSPost2010Prop29
280
     1
102
RTVSPost2010PropOp29
 70
     1
102
RTVSPost2010Prop30
280
     0
102
RTVSPost2010PropOp30
 70
     1
102
RTVSPost2010Prop31
280
     0
102
RTVSPost2010PropOp31
 70
     1
102
RTVSPost2010Prop32
280
     0
102
RTVSPost2010PropOp32
 70
     1
102
RTVSPost2010Prop33
280
     0
102
RTVSPost2010PropOp33
 70
     1
102
RTVSPost2010Prop34
280
     0
102
RTVSPost2010PropOp34
 70
     1
102
RTVSPost2010Prop35
280
     0
102
RTVSPost2010PropOp35
 70
     1
102
RTVSPost2010Prop36
280
     0
102
RTVSPost2010PropOp36
 70
     1
102
RTVSPost2010Prop37
 90
       50
102
RTVSPost2010PropOp37
 70
     1
102
RTVSPost2010Prop38
140
0.0
102
RTVSPost2010PropOp38
 70
     1
102
RTVSPost2010Prop39
140
1.0
102
RTVSPost2010PropOp39
 70
     1
102
RTVSPost2010Prop40
 90
        0
102
RTVSPost2010PropOp40
 70
     1
102
RTVSPost2010Prop41ColorIndex
 90
       18
102
RTVSPost2010Prop41ColorRGB
 90
-16777216
102
RTVSPost2010PropOp41
 70
     1
102
RTVSPost2010Prop42
 90
       50
102
RTVSPost2010PropOp42
 70
     1
102
RTVSPost2010Prop43
 90
        3
102
RTVSPost2010PropOp43
 70
     1
102
RTVSPost2010Prop44ColorIndex
 90
        5
102
RTVSPost2010Prop44ColorRGB
 90
      255
102
RTVSPost2010PropOp44
 70
     1
102
RTVSPost2010Prop45
280
     0
102
RTVSPost2010PropOp45
 70
     1
102
RTVSPost2010Prop46
 90
       50
102
RTVSPost2010PropOp46
 70
     1
102
RTVSPost2010Prop47
 90
       50
102
RTVSPost2010PropOp47
 70
     1
102
RTVSPost2010Prop48
 90
       50
102
RTVSPost2010PropOp48
 70
     1
102
RTVSPost2010Prop49
280
     0
102
RTVSPost2010PropOp49
 70
     1
102
RTVSPost2010Prop50
 90
       50
102
RTVSPost2010PropOp50
 70
     1
102
RTVSPost2010Prop51ColorIndex
 90
      256
102
RTVSPost2010Prop51ColorRGB
 90
-16777216
102
RTVSPost2010PropOp51
 70
     0
102
RTVSPost2010Prop52
140
1.0
102
RTVSPost2010PropOp52
 70
     0
102
RTVSPost2010Prop53
 90
        2
102
RTVSPost2010PropOp53
 70
     1
102
RTVSPost2010Prop54
  1
strokes_ogs.tif
102
RTVSPost2010PropOp54
 70
     1
102
RTVSPost2010Prop55
280
     0
102
RTVSPost2010PropOp55
 70
     1
102
RTVSPost2010Prop56
140
1.0
102
RTVSPost2010PropOp56
 70
     1
102
RTVSPost2010Prop57
140
1.0
102
RTVSPost2010PropOp57
 70
     1
  0
XRECORD
  5
14A4
102
{ACAD_REACTORS
330
14A3
102
}
330
14A3
100
AcDbXrecord
280
     1
102
RTVSPost2010Prop28
280
     0
102
RTVSPost2010PropOp28
 70
     1
102
RTVSPost2010Prop29
280
     1
102
RTVSPost2010PropOp29
 70
     1
102
RTVSPost2010Prop30
280
     1
102
RTVSPost2010PropOp30
 70
     1
102
RTVSPost2010Prop31
280
     0
102
RTVSPost2010PropOp31
 70
     1
102
RTVSPost2010Prop32
280
     0
102
RTVSPost2010PropOp32
 70
     1
102
RTVSPost2010Prop33
280
     0
102
RTVSPost2010PropOp33
 70
     1
102
RTVSPost2010Prop34
280
     0
102
RTVSPost2010PropOp34
 70
     1
102
RTVSPost2010Prop35
280
     0
102
RTVSPost2010PropOp35
 70
     1
102
RTVSPost2010Prop36
280
     0
102
RTVSPost2010PropOp36
 70
     1
102
RTVSPost2010Prop37
 90
       50
102
RTVSPost2010PropOp37
 70
     1
102
RTVSPost2010Prop38
140
0.0
102
RTVSPost2010PropOp38
 70
     1
102
RTVSPost2010Prop39
140
1.0
102
RTVSPost2010PropOp39
 70
     1
102
RTVSPost2010Prop40
 90
        0
102
RTVSPost2010PropOp40
 70
     1
102
RTVSPost2010Prop41ColorIndex
 90
       18
102
RTVSPost2010Prop41ColorRGB
 90
-16777216
102
RTVSPost2010PropOp41
 70
     1
102
RTVSPost2010Prop42
 90
       50
102
RTVSPost2010PropOp42
 70
     1
102
RTVSPost2010Prop43
 90
        3
102
RTVSPost2010PropOp43
 70
     1
102
RTVSPost2010Prop44ColorIndex
 90
        5
102
RTVSPost2010Prop44ColorRGB
 90
      255
102
RTVSPost2010PropOp44
 70
     1
102
RTVSPost2010Prop45
280
     0
102
RTVSPost2010PropOp45
 70
     1
102
RTVSPost2010Prop46
 90
       50
102
RTVSPost2010PropOp46
 70
     1
102
RTVSPost2010Prop47
 90
       50
102
RTVSPost2010PropOp47
 70
     1
102
RTVSPost2010Prop48
 90
       50
102
RTVSPost2010PropOp48
 70
     1
102
RTVSPost2010Prop49
280
     0
102
RTVSPost2010PropOp49
 70
     1
102
RTVSPost2010Prop50
 90
       50
102
RTVSPost2010PropOp50
 70
     1
102
RTVSPost2010Prop51ColorIndex
 90
      256
102
RTVSPost2010Prop51ColorRGB
 90
-16777216
102
RTVSPost2010PropOp51
 70
     0
102
RTVSPost2010Prop52
140
1.0
102
RTVSPost2010PropOp52
 70
     0
102
RTVSPost2010Prop53
 90
        2
102
RTVSPost2010PropOp53
 70
     1
102
RTVSPost2010Prop54
  1
strokes_ogs.tif
102
RTVSPost2010PropOp54
 70
     1
102
RTVSPost2010Prop55
280
     0
102
RTVSPost2010PropOp55
 70
     1
102
RTVSPost2010Prop56
140
1.0
102
RTVSPost2010PropOp56
 70
     1
102
RTVSPost2010Prop57
140
1.0
102
RTVSPost2010PropOp57
 70
     1
  0
XRECORD
  5
14B2
102
{ACAD_REACTORS
330
14B1
102
}
330
14B1
100
AcDbXrecord
280
     1
102
RTVSPost2010Prop28
280
     0
102
RTVSPost2010PropOp28
 70
     1
102
RTVSPost2010Prop29
280
     1
102
RTVSPost2010PropOp29
 70
     1
102
RTVSPost2010Prop30
280
     1
102
RTVSPost2010PropOp30
 70
     1
102
RTVSPost2010Prop31
280
     0
102
RTVSPost2010PropOp31
 70
     1
102
RTVSPost2010Prop32
280
     0
102
RTVSPost2010PropOp32
 70
     1
102
RTVSPost2010Prop33
280
     0
102
RTVSPost2010PropOp33
 70
     1
102
RTVSPost2010Prop34
280
     0
102
RTVSPost2010PropOp34
 70
     1
102
RTVSPost2010Prop35
280
     0
102
RTVSPost2010PropOp35
 70
     1
102
RTVSPost2010Prop36
280
     0
102
RTVSPost2010PropOp36
 70
     1
102
RTVSPost2010Prop37
 90
       50
102
RTVSPost2010PropOp37
 70
     1
102
RTVSPost2010Prop38
140
0.0
102
RTVSPost2010PropOp38
 70
     1
102
RTVSPost2010Prop39
140
1.0
102
RTVSPost2010PropOp39
 70
     1
102
RTVSPost2010Prop40
 90
        0
102
RTVSPost2010PropOp40
 70
     1
102
RTVSPost2010Prop41ColorIndex
 90
       18
102
RTVSPost2010Prop41ColorRGB
 90
-16777216
102
RTVSPost2010PropOp41
 70
     1
102
RTVSPost2010Prop42
 90
       50
102
RTVSPost2010PropOp42
 70
     1
102
RTVSPost2010Prop43
 90
        3
102
RTVSPost2010PropOp43
 70
     1
102
RTVSPost2010Prop44ColorIndex
 90
        5
102
RTVSPost2010Prop44ColorRGB
 90
      255
102
RTVSPost2010PropOp44
 70
     1
102
RTVSPost2010Prop45
280
     0
102
RTVSPost2010PropOp45
 70
     1
102
RTVSPost2010Prop46
 90
       50
102
RTVSPost2010PropOp46
 70
     1
102
RTVSPost2010Prop47
 90
       50
102
RTVSPost2010PropOp47
 70
     1
102
RTVSPost2010Prop48
 90
       50
102
RTVSPost2010PropOp48
 70
     1
102
RTVSPost2010Prop49
280
     0
102
RTVSPost2010PropOp49
 70
     1
102
RTVSPost2010Prop50
 90
       50
102
RTVSPost2010PropOp50
 70
     1
102
RTVSPost2010Prop51ColorIndex
 90
      256
102
RTVSPost2010Prop51ColorRGB
 90
-16777216
102
RTVSPost2010PropOp51
 70
     0
102
RTVSPost2010Prop52
140
1.0
102
RTVSPost2010PropOp52
 70
     0
102
RTVSPost2010Prop53
 90
        2
102
RTVSPost2010PropOp53
 70
     1
102
RTVSPost2010Prop54
  1
strokes_ogs.tif
102
RTVSPost2010PropOp54
 70
     1
102
RTVSPost2010Prop55
280
     0
102
RTVSPost2010PropOp55
 70
     1
102
RTVSPost2010Prop56
140
1.0
102
RTVSPost2010PropOp56
 70
     1
102
RTVSPost2010Prop57
140
1.0
102
RTVSPost2010PropOp57
 70
     1
  0
XRECORD
  5
14BA
102
{ACAD_REACTORS
330
14B9
102
}
330
14B9
100
AcDbXrecord
280
     1
102
RTVSPost2010Prop28
280
     0
102
RTVSPost2010PropOp28
 70
     1
102
RTVSPost2010Prop29
280
     1
102
RTVSPost2010PropOp29
 70
     1
102
RTVSPost2010Prop30
280
     1
102
RTVSPost2010PropOp30
 70
     1
102
RTVSPost2010Prop31
280
     0
102
RTVSPost2010PropOp31
 70
     1
102
RTVSPost2010Prop32
280
     0
102
RTVSPost2010PropOp32
 70
     1
102
RTVSPost2010Prop33
280
     0
102
RTVSPost2010PropOp33
 70
     1
102
RTVSPost2010Prop34
280
     0
102
RTVSPost2010PropOp34
 70
     1
102
RTVSPost2010Prop35
280
     0
102
RTVSPost2010PropOp35
 70
     1
102
RTVSPost2010Prop36
280
     0
102
RTVSPost2010PropOp36
 70
     1
102
RTVSPost2010Prop37
 90
       50
102
RTVSPost2010PropOp37
 70
     1
102
RTVSPost2010Prop38
140
0.0
102
RTVSPost2010PropOp38
 70
     1
102
RTVSPost2010Prop39
140
1.0
102
RTVSPost2010PropOp39
 70
     1
102
RTVSPost2010Prop40
 90
        0
102
RTVSPost2010PropOp40
 70
     1
102
RTVSPost2010Prop41ColorIndex
 90
       18
102
RTVSPost2010Prop41ColorRGB
 90
-16777216
102
RTVSPost2010PropOp41
 70
     1
102
RTVSPost2010Prop42
 90
       50
102
RTVSPost2010PropOp42
 70
     1
102
RTVSPost2010Prop43
 90
        3
102
RTVSPost2010PropOp43
 70
     1
102
RTVSPost2010Prop44ColorIndex
 90
        5
102
RTVSPost2010Prop44ColorRGB
 90
      255
102
RTVSPost2010PropOp44
 70
     1
102
RTVSPost2010Prop45
280
     0
102
RTVSPost2010PropOp45
 70
     1
102
RTVSPost2010Prop46
 90
       50
102
RTVSPost2010PropOp46
 70
     1
102
RTVSPost2010Prop47
 90
       50
102
RTVSPost2010PropOp47
 70
     1
102
RTVSPost2010Prop48
 90
       50
102
RTVSPost2010PropOp48
 70
     1
102
RTVSPost2010Prop49
280
     0
102
RTVSPost2010PropOp49
 70
     1
102
RTVSPost2010Prop50
 90
       50
102
RTVSPost2010PropOp50
 70
     1
102
RTVSPost2010Prop51ColorIndex
 90
      256
102
RTVSPost2010Prop51ColorRGB
 90
-16777216
102
RTVSPost2010PropOp51
 70
     0
102
RTVSPost2010Prop52
140
1.0
102
RTVSPost2010PropOp52
 70
     0
102
RTVSPost2010Prop53
 90
        2
102
RTVSPost2010PropOp53
 70
     1
102
RTVSPost2010Prop54
  1
strokes_ogs.tif
102
RTVSPost2010PropOp54
 70
     1
102
RTVSPost2010Prop55
280
     0
102
RTVSPost2010PropOp55
 70
     1
102
RTVSPost2010Prop56
140
1.0
102
RTVSPost2010PropOp56
 70
     1
102
RTVSPost2010Prop57
140
1.0
102
RTVSPost2010PropOp57
 70
     1
  0
XRECORD
  5
14AC
102
{ACAD_REACTORS
330
14AB
102
}
330
14AB
100
AcDbXrecord
280
     1
102
RTVSPost2010Prop28
280
     0
102
RTVSPost2010PropOp28
 70
     1
102
RTVSPost2010Prop29
280
     1
102
RTVSPost2010PropOp29
 70
     1
102
RTVSPost2010Prop30
280
     1
102
RTVSPost2010PropOp30
 70
     1
102
RTVSPost2010Prop31
280
     0
102
RTVSPost2010PropOp31
 70
     1
102
RTVSPost2010Prop32
280
     0
102
RTVSPost2010PropOp32
 70
     1
102
RTVSPost2010Prop33
280
     0
102
RTVSPost2010PropOp33
 70
     1
102
RTVSPost2010Prop34
280
     0
102
RTVSPost2010PropOp34
 70
     1
102
RTVSPost2010Prop35
280
     0
102
RTVSPost2010PropOp35
 70
     1
102
RTVSPost2010Prop36
280
     0
102
RTVSPost2010PropOp36
 70
     1
102
RTVSPost2010Prop37
 90
       50
102
RTVSPost2010PropOp37
 70
     1
102
RTVSPost2010Prop38
140
0.0
102
RTVSPost2010PropOp38
 70
     1
102
RTVSPost2010Prop39
140
1.0
102
RTVSPost2010PropOp39
 70
     1
102
RTVSPost2010Prop40
 90
        0
102
RTVSPost2010PropOp40
 70
     1
102
RTVSPost2010Prop41ColorIndex
 90
       18
102
RTVSPost2010Prop41ColorRGB
 90
-16777216
102
RTVSPost2010PropOp41
 70
     1
102
RTVSPost2010Prop42
 90
       50
102
RTVSPost2010PropOp42
 70
     1
102
RTVSPost2010Prop43
 90
        3
102
RTVSPost2010PropOp43
 70
     1
102
RTVSPost2010Prop44ColorIndex
 90
        5
102
RTVSPost2010Prop44ColorRGB
 90
      255
102
RTVSPost2010PropOp44
 70
     1
102
RTVSPost2010Prop45
280
     0
102
RTVSPost2010PropOp45
 70
     1
102
RTVSPost2010Prop46
 90
       50
102
RTVSPost2010PropOp46
 70
     1
102
RTVSPost2010Prop47
 90
       50
102
RTVSPost2010PropOp47
 70
     1
102
RTVSPost2010Prop48
 90
       50
102
RTVSPost2010PropOp48
 70
     1
102
RTVSPost2010Prop49
280
     0
102
RTVSPost2010PropOp49
 70
     1
102
RTVSPost2010Prop50
 90
       50
102
RTVSPost2010PropOp50
 70
     1
102
RTVSPost2010Prop51ColorIndex
 90
      256
102
RTVSPost2010Prop51ColorRGB
 90
-16777216
102
RTVSPost2010PropOp51
 70
     0
102
RTVSPost2010Prop52
140
1.0
102
RTVSPost2010PropOp52
 70
     0
102
RTVSPost2010Prop53
 90
        2
102
RTVSPost2010PropOp53
 70
     1
102
RTVSPost2010Prop54
  1
strokes_ogs.tif
102
RTVSPost2010PropOp54
 70
     1
102
RTVSPost2010Prop55
280
     0
102
RTVSPost2010PropOp55
 70
     1
102
RTVSPost2010Prop56
140
1.0
102
RTVSPost2010PropOp56
 70
     1
102
RTVSPost2010Prop57
140
1.0
102
RTVSPost2010PropOp57
 70
     1
  0
XRECORD
  5
14B0
102
{ACAD_REACTORS
330
14AF
102
}
330
14AF
100
AcDbXrecord
280
     1
102
RTVSPost2010Prop28
280
     0
102
RTVSPost2010PropOp28
 70
     1
102
RTVSPost2010Prop29
280
     1
102
RTVSPost2010PropOp29
 70
     1
102
RTVSPost2010Prop30
280
     1
102
RTVSPost2010PropOp30
 70
     1
102
RTVSPost2010Prop31
280
     0
102
RTVSPost2010PropOp31
 70
     1
102
RTVSPost2010Prop32
280
     0
102
RTVSPost2010PropOp32
 70
     1
102
RTVSPost2010Prop33
280
     0
102
RTVSPost2010PropOp33
 70
     1
102
RTVSPost2010Prop34
280
     0
102
RTVSPost2010PropOp34
 70
     1
102
RTVSPost2010Prop35
280
     0
102
RTVSPost2010PropOp35
 70
     1
102
RTVSPost2010Prop36
280
     0
102
RTVSPost2010PropOp36
 70
     1
102
RTVSPost2010Prop37
 90
       50
102
RTVSPost2010PropOp37
 70
     1
102
RTVSPost2010Prop38
140
0.0
102
RTVSPost2010PropOp38
 70
     1
102
RTVSPost2010Prop39
140
1.0
102
RTVSPost2010PropOp39
 70
     1
102
RTVSPost2010Prop40
 90
        0
102
RTVSPost2010PropOp40
 70
     1
102
RTVSPost2010Prop41ColorIndex
 90
       18
102
RTVSPost2010Prop41ColorRGB
 90
-16777216
102
RTVSPost2010PropOp41
 70
     1
102
RTVSPost2010Prop42
 90
       50
102
RTVSPost2010PropOp42
 70
     1
102
RTVSPost2010Prop43
 90
        3
102
RTVSPost2010PropOp43
 70
     1
102
RTVSPost2010Prop44ColorIndex
 90
        5
102
RTVSPost2010Prop44ColorRGB
 90
      255
102
RTVSPost2010PropOp44
 70
     1
102
RTVSPost2010Prop45
280
     0
102
RTVSPost2010PropOp45
 70
     1
102
RTVSPost2010Prop46
 90
       50
102
RTVSPost2010PropOp46
 70
     1
102
RTVSPost2010Prop47
 90
       50
102
RTVSPost2010PropOp47
 70
     1
102
RTVSPost2010Prop48
 90
       50
102
RTVSPost2010PropOp48
 70
     1
102
RTVSPost2010Prop49
280
     0
102
RTVSPost2010PropOp49
 70
     1
102
RTVSPost2010Prop50
 90
       50
102
RTVSPost2010PropOp50
 70
     1
102
RTVSPost2010Prop51ColorIndex
 90
      256
102
RTVSPost2010Prop51ColorRGB
 90
-16777216
102
RTVSPost2010PropOp51
 70
     0
102
RTVSPost2010Prop52
140
1.0
102
RTVSPost2010PropOp52
 70
     0
102
RTVSPost2010Prop53
 90
        2
102
RTVSPost2010PropOp53
 70
     1
102
RTVSPost2010Prop54
  1
strokes_ogs.tif
102
RTVSPost2010PropOp54
 70
     1
102
RTVSPost2010Prop55
280
     0
102
RTVSPost2010PropOp55
 70
     1
102
RTVSPost2010Prop56
140
1.0
102
RTVSPost2010PropOp56
 70
     1
102
RTVSPost2010Prop57
140
1.0
102
RTVSPost2010PropOp57
 70
     1
  0
XRECORD
  5
14CA
102
{ACAD_REACTORS
330
14C9
102
}
330
14C9
100
AcDbXrecord
280
     1
102
RTVSPost2010Prop28
280
     0
102
RTVSPost2010PropOp28
 70
     1
102
RTVSPost2010Prop29
280
     1
102
RTVSPost2010PropOp29
 70
     1
102
RTVSPost2010Prop30
280
     1
102
RTVSPost2010PropOp30
 70
     1
102
RTVSPost2010Prop31
280
     0
102
RTVSPost2010PropOp31
 70
     1
102
RTVSPost2010Prop32
280
     0
102
RTVSPost2010PropOp32
 70
     1
102
RTVSPost2010Prop33
280
     0
102
RTVSPost2010PropOp33
 70
     1
102
RTVSPost2010Prop34
280
     0
102
RTVSPost2010PropOp34
 70
     1
102
RTVSPost2010Prop35
280
     0
102
RTVSPost2010PropOp35
 70
     1
102
RTVSPost2010Prop36
280
     0
102
RTVSPost2010PropOp36
 70
     1
102
RTVSPost2010Prop37
 90
       50
102
RTVSPost2010PropOp37
 70
     0
102
RTVSPost2010Prop38
140
0.0
102
RTVSPost2010PropOp38
 70
     0
102
RTVSPost2010Prop39
140
1.0
102
RTVSPost2010PropOp39
 70
     0
102
RTVSPost2010Prop40
 90
        0
102
RTVSPost2010PropOp40
 70
     0
102
RTVSPost2010Prop41ColorIndex
 90
       18
102
RTVSPost2010Prop41ColorRGB
 90
-16777216
102
RTVSPost2010PropOp41
 70
     0
102
RTVSPost2010Prop42
 90
       50
102
RTVSPost2010PropOp42
 70
     0
102
RTVSPost2010Prop43
 90
        3
102
RTVSPost2010PropOp43
 70
     0
102
RTVSPost2010Prop44ColorIndex
 90
        5
102
RTVSPost2010Prop44ColorRGB
 90
      255
102
RTVSPost2010PropOp44
 70
     0
102
RTVSPost2010Prop45
280
     0
102
RTVSPost2010PropOp45
 70
     1
102
RTVSPost2010Prop46
 90
       50
102
RTVSPost2010PropOp46
 70
     0
102
RTVSPost2010Prop47
 90
       50
102
RTVSPost2010PropOp47
 70
     0
102
RTVSPost2010Prop48
 90
       50
102
RTVSPost2010PropOp48
 70
     0
102
RTVSPost2010Prop49
280
     0
102
RTVSPost2010PropOp49
 70
     1
102
RTVSPost2010Prop50
 90
       50
102
RTVSPost2010PropOp50
 70
     0
102
RTVSPost2010Prop51ColorIndex
 90
      256
102
RTVSPost2010Prop51ColorRGB
 90
-16777216
102
RTVSPost2010PropOp51
 70
     0
102
RTVSPost2010Prop52
140
1.0
102
RTVSPost2010PropOp52
 70
     0
102
RTVSPost2010Prop53
 90
        2
102
RTVSPost2010PropOp53
 70
     0
102
RTVSPost2010Prop54
  1
strokes_ogs.tif
102
RTVSPost2010PropOp54
 70
     0
102
RTVSPost2010Prop55
280
     0
102
RTVSPost2010PropOp55
 70
     1
102
RTVSPost2010Prop56
140
1.0
102
RTVSPost2010PropOp56
 70
     0
102
RTVSPost2010Prop57
140
1.0
102
RTVSPost2010PropOp57
 70
     0
  0
XRECORD
  5
14B8
102
{ACAD_REACTORS
330
14B7
102
}
330
14B7
100
AcDbXrecord
280
     1
102
RTVSPost2010Prop28
280
     0
102
RTVSPost2010PropOp28
 70
     1
102
RTVSPost2010Prop29
280
     1
102
RTVSPost2010PropOp29
 70
     1
102
RTVSPost2010Prop30
280
     1
102
RTVSPost2010PropOp30
 70
     1
102
RTVSPost2010Prop31
280
     0
102
RTVSPost2010PropOp31
 70
     1
102
RTVSPost2010Prop32
280
     0
102
RTVSPost2010PropOp32
 70
     1
102
RTVSPost2010Prop33
280
     0
102
RTVSPost2010PropOp33
 70
     1
102
RTVSPost2010Prop34
280
     0
102
RTVSPost2010PropOp34
 70
     1
102
RTVSPost2010Prop35
280
     0
102
RTVSPost2010PropOp35
 70
     1
102
RTVSPost2010Prop36
280
     0
102
RTVSPost2010PropOp36
 70
     1
102
RTVSPost2010Prop37
 90
       50
102
RTVSPost2010PropOp37
 70
     1
102
RTVSPost2010Prop38
140
0.0
102
RTVSPost2010PropOp38
 70
     1
102
RTVSPost2010Prop39
140
1.0
102
RTVSPost2010PropOp39
 70
     1
102
RTVSPost2010Prop40
 90
        0
102
RTVSPost2010PropOp40
 70
     1
102
RTVSPost2010Prop41ColorIndex
 90
       18
102
RTVSPost2010Prop41ColorRGB
 90
-16777216
102
RTVSPost2010PropOp41
 70
     1
102
RTVSPost2010Prop42
 90
       50
102
RTVSPost2010PropOp42
 70
     1
102
RTVSPost2010Prop43
 90
        3
102
RTVSPost2010PropOp43
 70
     1
102
RTVSPost2010Prop44ColorIndex
 90
        5
102
RTVSPost2010Prop44ColorRGB
 90
      255
102
RTVSPost2010PropOp44
 70
     1
102
RTVSPost2010Prop45
280
     0
102
RTVSPost2010PropOp45
 70
     1
102
RTVSPost2010Prop46
 90
       50
102
RTVSPost2010PropOp46
 70
     1
102
RTVSPost2010Prop47
 90
       50
102
RTVSPost2010PropOp47
 70
     1
102
RTVSPost2010Prop48
 90
       50
102
RTVSPost2010PropOp48
 70
     1
102
RTVSPost2010Prop49
280
     0
102
RTVSPost2010PropOp49
 70
     1
102
RTVSPost2010Prop50
 90
       50
102
RTVSPost2010PropOp50
 70
     1
102
RTVSPost2010Prop51ColorIndex
 90
      256
102
RTVSPost2010Prop51ColorRGB
 90
-16777216
102
RTVSPost2010PropOp51
 70
     0
102
RTVSPost2010Prop52
140
1.0
102
RTVSPost2010PropOp52
 70
     0
102
RTVSPost2010Prop53
 90
        2
102
RTVSPost2010PropOp53
 70
     1
102
RTVSPost2010Prop54
  1
strokes_ogs.tif
102
RTVSPost2010PropOp54
 70
     1
102
RTVSPost2010Prop55
280
     0
102
RTVSPost2010PropOp55
 70
     1
102
RTVSPost2010Prop56
140
1.0
102
RTVSPost2010PropOp56
 70
     1
102
RTVSPost2010Prop57
140
1.0
102
RTVSPost2010PropOp57
 70
     1
  0
XRECORD
  5
149C
102
{ACAD_REACTORS
330
149B
102
}
330
149B
100
AcDbXrecord
280
     1
102
RTVSPost2010Prop28
280
     0
102
RTVSPost2010PropOp28
 70
     1
102
RTVSPost2010Prop29
280
     1
102
RTVSPost2010PropOp29
 70
     1
102
RTVSPost2010Prop30
280
     1
102
RTVSPost2010PropOp30
 70
     1
102
RTVSPost2010Prop31
280
     0
102
RTVSPost2010PropOp31
 70
     1
102
RTVSPost2010Prop32
280
     0
102
RTVSPost2010PropOp32
 70
     1
102
RTVSPost2010Prop33
280
     0
102
RTVSPost2010PropOp33
 70
     1
102
RTVSPost2010Prop34
280
     0
102
RTVSPost2010PropOp34
 70
     1
102
RTVSPost2010Prop35
280
     0
102
RTVSPost2010PropOp35
 70
     1
102
RTVSPost2010Prop36
280
     0
102
RTVSPost2010PropOp36
 70
     1
102
RTVSPost2010Prop37
 90
       50
102
RTVSPost2010PropOp37
 70
     1
102
RTVSPost2010Prop38
140
0.0
102
RTVSPost2010PropOp38
 70
     1
102
RTVSPost2010Prop39
140
1.0
102
RTVSPost2010PropOp39
 70
     1
102
RTVSPost2010Prop40
 90
        0
102
RTVSPost2010PropOp40
 70
     1
102
RTVSPost2010Prop41ColorIndex
 90
       18
102
RTVSPost2010Prop41ColorRGB
 90
-16777216
102
RTVSPost2010PropOp41
 70
     1
102
RTVSPost2010Prop42
 90
       50
102
RTVSPost2010PropOp42
 70
     1
102
RTVSPost2010Prop43
 90
        3
102
RTVSPost2010PropOp43
 70
     1
102
RTVSPost2010Prop44ColorIndex
 90
        5
102
RTVSPost2010Prop44ColorRGB
 90
      255
102
RTVSPost2010PropOp44
 70
     1
102
RTVSPost2010Prop45
280
     0
102
RTVSPost2010PropOp45
 70
     1
102
RTVSPost2010Prop46
 90
       50
102
RTVSPost2010PropOp46
 70
     1
102
RTVSPost2010Prop47
 90
       50
102
RTVSPost2010PropOp47
 70
     1
102
RTVSPost2010Prop48
 90
       50
102
RTVSPost2010PropOp48
 70
     1
102
RTVSPost2010Prop49
280
     0
102
RTVSPost2010PropOp49
 70
     1
102
RTVSPost2010Prop50
 90
       50
102
RTVSPost2010PropOp50
 70
     1
102
RTVSPost2010Prop51ColorIndex
 90
      256
102
RTVSPost2010Prop51ColorRGB
 90
-16777216
102
RTVSPost2010PropOp51
 70
     0
102
RTVSPost2010Prop52
140
1.0
102
RTVSPost2010PropOp52
 70
     0
102
RTVSPost2010Prop53
 90
        2
102
RTVSPost2010PropOp53
 70
     1
102
RTVSPost2010Prop54
  1
strokes_ogs.tif
102
RTVSPost2010PropOp54
 70
     1
102
RTVSPost2010Prop55
280
     0
102
RTVSPost2010PropOp55
 70
     1
102
RTVSPost2010Prop56
140
1.0
102
RTVSPost2010PropOp56
 70
     1
102
RTVSPost2010Prop57
140
1.0
102
RTVSPost2010PropOp57
 70
     1
  0
XRECORD
  5
149E
102
{ACAD_REACTORS
330
149D
102
}
330
149D
100
AcDbXrecord
280
     1
102
RTVSPost2010Prop28
280
     0
102
RTVSPost2010PropOp28
 70
     1
102
RTVSPost2010Prop29
280
     1
102
RTVSPost2010PropOp29
 70
     1
102
RTVSPost2010Prop30
280
     1
102
RTVSPost2010PropOp30
 70
     1
102
RTVSPost2010Prop31
280
     0
102
RTVSPost2010PropOp31
 70
     1
102
RTVSPost2010Prop32
280
     0
102
RTVSPost2010PropOp32
 70
     1
102
RTVSPost2010Prop33
280
     0
102
RTVSPost2010PropOp33
 70
     1
102
RTVSPost2010Prop34
280
     0
102
RTVSPost2010PropOp34
 70
     1
102
RTVSPost2010Prop35
280
     0
102
RTVSPost2010PropOp35
 70
     1
102
RTVSPost2010Prop36
280
     0
102
RTVSPost2010PropOp36
 70
     1
102
RTVSPost2010Prop37
 90
       50
102
RTVSPost2010PropOp37
 70
     1
102
RTVSPost2010Prop38
140
0.0
102
RTVSPost2010PropOp38
 70
     1
102
RTVSPost2010Prop39
140
1.0
102
RTVSPost2010PropOp39
 70
     1
102
RTVSPost2010Prop40
 90
        0
102
RTVSPost2010PropOp40
 70
     1
102
RTVSPost2010Prop41ColorIndex
 90
       18
102
RTVSPost2010Prop41ColorRGB
 90
-16777216
102
RTVSPost2010PropOp41
 70
     1
102
RTVSPost2010Prop42
 90
       50
102
RTVSPost2010PropOp42
 70
     1
102
RTVSPost2010Prop43
 90
        3
102
RTVSPost2010PropOp43
 70
     1
102
RTVSPost2010Prop44ColorIndex
 90
        5
102
RTVSPost2010Prop44ColorRGB
 90
      255
102
RTVSPost2010PropOp44
 70
     1
102
RTVSPost2010Prop45
280
     0
102
RTVSPost2010PropOp45
 70
     1
102
RTVSPost2010Prop46
 90
       50
102
RTVSPost2010PropOp46
 70
     1
102
RTVSPost2010Prop47
 90
       50
102
RTVSPost2010PropOp47
 70
     1
102
RTVSPost2010Prop48
 90
       50
102
RTVSPost2010PropOp48
 70
     1
102
RTVSPost2010Prop49
280
     0
102
RTVSPost2010PropOp49
 70
     1
102
RTVSPost2010Prop50
 90
       50
102
RTVSPost2010PropOp50
 70
     1
102
RTVSPost2010Prop51ColorIndex
 90
      256
102
RTVSPost2010Prop51ColorRGB
 90
-16777216
102
RTVSPost2010PropOp51
 70
     0
102
RTVSPost2010Prop52
140
1.0
102
RTVSPost2010PropOp52
 70
     0
102
RTVSPost2010Prop53
 90
        2
102
RTVSPost2010PropOp53
 70
     1
102
RTVSPost2010Prop54
  1
strokes_ogs.tif
102
RTVSPost2010PropOp54
 70
     1
102
RTVSPost2010Prop55
280
     0
102
RTVSPost2010PropOp55
 70
     1
102
RTVSPost2010Prop56
140
1.0
102
RTVSPost2010PropOp56
 70
     1
102
RTVSPost2010Prop57
140
1.0
102
RTVSPost2010PropOp57
 70
     1
  0
XRECORD
  5
14A0
102
{ACAD_REACTORS
330
149F
102
}
330
149F
100
AcDbXrecord
280
     1
102
RTVSPost2010Prop28
280
     0
102
RTVSPost2010PropOp28
 70
     1
102
RTVSPost2010Prop29
280
     1
102
RTVSPost2010PropOp29
 70
     1
102
RTVSPost2010Prop30
280
     1
102
RTVSPost2010PropOp30
 70
     1
102
RTVSPost2010Prop31
280
     0
102
RTVSPost2010PropOp31
 70
     1
102
RTVSPost2010Prop32
280
     0
102
RTVSPost2010PropOp32
 70
     1
102
RTVSPost2010Prop33
280
     0
102
RTVSPost2010PropOp33
 70
     1
102
RTVSPost2010Prop34
280
     0
102
RTVSPost2010PropOp34
 70
     1
102
RTVSPost2010Prop35
280
     0
102
RTVSPost2010PropOp35
 70
     1
102
RTVSPost2010Prop36
280
     0
102
RTVSPost2010PropOp36
 70
     1
102
RTVSPost2010Prop37
 90
       50
102
RTVSPost2010PropOp37
 70
     1
102
RTVSPost2010Prop38
140
0.0
102
RTVSPost2010PropOp38
 70
     1
102
RTVSPost2010Prop39
140
1.0
102
RTVSPost2010PropOp39
 70
     1
102
RTVSPost2010Prop40
 90
        0
102
RTVSPost2010PropOp40
 70
     1
102
RTVSPost2010Prop41ColorIndex
 90
       18
102
RTVSPost2010Prop41ColorRGB
 90
-16777216
102
RTVSPost2010PropOp41
 70
     1
102
RTVSPost2010Prop42
 90
       50
102
RTVSPost2010PropOp42
 70
     1
102
RTVSPost2010Prop43
 90
        3
102
RTVSPost2010PropOp43
 70
     1
102
RTVSPost2010Prop44ColorIndex
 90
        5
102
RTVSPost2010Prop44ColorRGB
 90
      255
102
RTVSPost2010PropOp44
 70
     1
102
RTVSPost2010Prop45
280
     0
102
RTVSPost2010PropOp45
 70
     1
102
RTVSPost2010Prop46
 90
       50
102
RTVSPost2010PropOp46
 70
     1
102
RTVSPost2010Prop47
 90
       50
102
RTVSPost2010PropOp47
 70
     1
102
RTVSPost2010Prop48
 90
       50
102
RTVSPost2010PropOp48
 70
     1
102
RTVSPost2010Prop49
280
     0
102
RTVSPost2010PropOp49
 70
     1
102
RTVSPost2010Prop50
 90
       50
102
RTVSPost2010PropOp50
 70
     1
102
RTVSPost2010Prop51ColorIndex
 90
      256
102
RTVSPost2010Prop51ColorRGB
 90
-16777216
102
RTVSPost2010PropOp51
 70
     0
102
RTVSPost2010Prop52
140
1.0
102
RTVSPost2010PropOp52
 70
     0
102
RTVSPost2010Prop53
 90
        2
102
RTVSPost2010PropOp53
 70
     1
102
RTVSPost2010Prop54
  1
strokes_ogs.tif
102
RTVSPost2010PropOp54
 70
     1
102
RTVSPost2010Prop55
280
     0
102
RTVSPost2010PropOp55
 70
     1
102
RTVSPost2010Prop56
140
1.0
102
RTVSPost2010PropOp56
 70
     1
102
RTVSPost2010Prop57
140
1.0
102
RTVSPost2010PropOp57
 70
     1
  0
XRECORD
  5
14A2
102
{ACAD_REACTORS
330
14A1
102
}
330
14A1
100
AcDbXrecord
280
     1
102
RTVSPost2010Prop28
280
     0
102
RTVSPost2010PropOp28
 70
     1
102
RTVSPost2010Prop29
280
     1
102
RTVSPost2010PropOp29
 70
     1
102
RTVSPost2010Prop30
280
     1
102
RTVSPost2010PropOp30
 70
     1
102
RTVSPost2010Prop31
280
     0
102
RTVSPost2010PropOp31
 70
     1
102
RTVSPost2010Prop32
280
     0
102
RTVSPost2010PropOp32
 70
     1
102
RTVSPost2010Prop33
280
     0
102
RTVSPost2010PropOp33
 70
     1
102
RTVSPost2010Prop34
280
     0
102
RTVSPost2010PropOp34
 70
     1
102
RTVSPost2010Prop35
280
     0
102
RTVSPost2010PropOp35
 70
     1
102
RTVSPost2010Prop36
280
     0
102
RTVSPost2010PropOp36
 70
     1
102
RTVSPost2010Prop37
 90
       50
102
RTVSPost2010PropOp37
 70
     1
102
RTVSPost2010Prop38
140
0.0
102
RTVSPost2010PropOp38
 70
     1
102
RTVSPost2010Prop39
140
1.0
102
RTVSPost2010PropOp39
 70
     1
102
RTVSPost2010Prop40
 90
        0
102
RTVSPost2010PropOp40
 70
     1
102
RTVSPost2010Prop41ColorIndex
 90
       18
102
RTVSPost2010Prop41ColorRGB
 90
-16777216
102
RTVSPost2010PropOp41
 70
     1
102
RTVSPost2010Prop42
 90
       50
102
RTVSPost2010PropOp42
 70
     1
102
RTVSPost2010Prop43
 90
        3
102
RTVSPost2010PropOp43
 70
     1
102
RTVSPost2010Prop44ColorIndex
 90
        5
102
RTVSPost2010Prop44ColorRGB
 90
      255
102
RTVSPost2010PropOp44
 70
     1
102
RTVSPost2010Prop45
280
     0
102
RTVSPost2010PropOp45
 70
     1
102
RTVSPost2010Prop46
 90
       50
102
RTVSPost2010PropOp46
 70
     1
102
RTVSPost2010Prop47
 90
       50
102
RTVSPost2010PropOp47
 70
     1
102
RTVSPost2010Prop48
 90
       50
102
RTVSPost2010PropOp48
 70
     1
102
RTVSPost2010Prop49
280
     0
102
RTVSPost2010PropOp49
 70
     1
102
RTVSPost2010Prop50
 90
       50
102
RTVSPost2010PropOp50
 70
     1
102
RTVSPost2010Prop51ColorIndex
 90
      256
102
RTVSPost2010Prop51ColorRGB
 90
-16777216
102
RTVSPost2010PropOp51
 70
     0
102
RTVSPost2010Prop52
140
1.0
102
RTVSPost2010PropOp52
 70
     0
102
RTVSPost2010Prop53
 90
        2
102
RTVSPost2010PropOp53
 70
     1
102
RTVSPost2010Prop54
  1
strokes_ogs.tif
102
RTVSPost2010PropOp54
 70
     1
102
RTVSPost2010Prop55
280
     0
102
RTVSPost2010PropOp55
 70
     1
102
RTVSPost2010Prop56
140
1.0
102
RTVSPost2010PropOp56
 70
     1
102
RTVSPost2010Prop57
140
1.0
102
RTVSPost2010PropOp57
 70
     1
  0
XRECORD
  5
14AA
102
{ACAD_REACTORS
330
14A9
102
}
330
14A9
100
AcDbXrecord
280
     1
102
RTVSPost2010Prop28
280
     0
102
RTVSPost2010PropOp28
 70
     1
102
RTVSPost2010Prop29
280
     1
102
RTVSPost2010PropOp29
 70
     1
102
RTVSPost2010Prop30
280
     1
102
RTVSPost2010PropOp30
 70
     1
102
RTVSPost2010Prop31
280
     0
102
RTVSPost2010PropOp31
 70
     1
102
RTVSPost2010Prop32
280
     0
102
RTVSPost2010PropOp32
 70
     1
102
RTVSPost2010Prop33
280
     0
102
RTVSPost2010PropOp33
 70
     1
102
RTVSPost2010Prop34
280
     0
102
RTVSPost2010PropOp34
 70
     1
102
RTVSPost2010Prop35
280
     0
102
RTVSPost2010PropOp35
 70
     1
102
RTVSPost2010Prop36
280
     0
102
RTVSPost2010PropOp36
 70
     1
102
RTVSPost2010Prop37
 90
       50
102
RTVSPost2010PropOp37
 70
     1
102
RTVSPost2010Prop38
140
0.0
102
RTVSPost2010PropOp38
 70
     1
102
RTVSPost2010Prop39
140
1.0
102
RTVSPost2010PropOp39
 70
     1
102
RTVSPost2010Prop40
 90
        0
102
RTVSPost2010PropOp40
 70
     1
102
RTVSPost2010Prop41ColorIndex
 90
       18
102
RTVSPost2010Prop41ColorRGB
 90
-16777216
102
RTVSPost2010PropOp41
 70
     1
102
RTVSPost2010Prop42
 90
       50
102
RTVSPost2010PropOp42
 70
     1
102
RTVSPost2010Prop43
 90
        3
102
RTVSPost2010PropOp43
 70
     1
102
RTVSPost2010Prop44ColorIndex
 90
        5
102
RTVSPost2010Prop44ColorRGB
 90
      255
102
RTVSPost2010PropOp44
 70
     1
102
RTVSPost2010Prop45
280
     0
102
RTVSPost2010PropOp45
 70
     1
102
RTVSPost2010Prop46
 90
       50
102
RTVSPost2010PropOp46
 70
     1
102
RTVSPost2010Prop47
 90
       50
102
RTVSPost2010PropOp47
 70
     1
102
RTVSPost2010Prop48
 90
       50
102
RTVSPost2010PropOp48
 70
     1
102
RTVSPost2010Prop49
280
     0
102
RTVSPost2010PropOp49
 70
     1
102
RTVSPost2010Prop50
 90
       50
102
RTVSPost2010PropOp50
 70
     1
102
RTVSPost2010Prop51ColorIndex
 90
      256
102
RTVSPost2010Prop51ColorRGB
 90
-16777216
102
RTVSPost2010PropOp51
 70
     0
102
RTVSPost2010Prop52
140
1.0
102
RTVSPost2010PropOp52
 70
     0
102
RTVSPost2010Prop53
 90
        2
102
RTVSPost2010PropOp53
 70
     1
102
RTVSPost2010Prop54
  1
strokes_ogs.tif
102
RTVSPost2010PropOp54
 70
     1
102
RTVSPost2010Prop55
280
     0
102
RTVSPost2010PropOp55
 70
     1
102
RTVSPost2010Prop56
140
1.0
102
RTVSPost2010PropOp56
 70
     1
102
RTVSPost2010Prop57
140
1.0
102
RTVSPost2010PropOp57
 70
     1
  0
XRECORD
  5
14C6
102
{ACAD_REACTORS
330
14C5
102
}
330
14C5
100
AcDbXrecord
280
     1
102
RTVSPost2010Prop28
280
     0
102
RTVSPost2010PropOp28
 70
     1
102
RTVSPost2010Prop29
280
     1
102
RTVSPost2010PropOp29
 70
     1
102
RTVSPost2010Prop30
280
     1
102
RTVSPost2010PropOp30
 70
     1
102
RTVSPost2010Prop31
280
     0
102
RTVSPost2010PropOp31
 70
     1
102
RTVSPost2010Prop32
280
     0
102
RTVSPost2010PropOp32
 70
     1
102
RTVSPost2010Prop33
280
     0
102
RTVSPost2010PropOp33
 70
     1
102
RTVSPost2010Prop34
280
     0
102
RTVSPost2010PropOp34
 70
     1
102
RTVSPost2010Prop35
280
     0
102
RTVSPost2010PropOp35
 70
     1
102
RTVSPost2010Prop36
280
     0
102
RTVSPost2010PropOp36
 70
     1
102
RTVSPost2010Prop37
 90
       50
102
RTVSPost2010PropOp37
 70
     0
102
RTVSPost2010Prop38
140
0.0
102
RTVSPost2010PropOp38
 70
     0
102
RTVSPost2010Prop39
140
1.0
102
RTVSPost2010PropOp39
 70
     0
102
RTVSPost2010Prop40
 90
        0
102
RTVSPost2010PropOp40
 70
     0
102
RTVSPost2010Prop41ColorIndex
 90
       18
102
RTVSPost2010Prop41ColorRGB
 90
-16777216
102
RTVSPost2010PropOp41
 70
     0
102
RTVSPost2010Prop42
 90
       50
102
RTVSPost2010PropOp42
 70
     0
102
RTVSPost2010Prop43
 90
        3
102
RTVSPost2010PropOp43
 70
     0
102
RTVSPost2010Prop44ColorIndex
 90
        5
102
RTVSPost2010Prop44ColorRGB
 90
      255
102
RTVSPost2010PropOp44
 70
     0
102
RTVSPost2010Prop45
280
     0
102
RTVSPost2010PropOp45
 70
     1
102
RTVSPost2010Prop46
 90
       50
102
RTVSPost2010PropOp46
 70
     0
102
RTVSPost2010Prop47
 90
       50
102
RTVSPost2010PropOp47
 70
     0
102
RTVSPost2010Prop48
 90
       50
102
RTVSPost2010PropOp48
 70
     0
102
RTVSPost2010Prop49
280
     0
102
RTVSPost2010PropOp49
 70
     1
102
RTVSPost2010Prop50
 90
       50
102
RTVSPost2010PropOp50
 70
     0
102
RTVSPost2010Prop51ColorIndex
 90
      256
102
RTVSPost2010Prop51ColorRGB
 90
-16777216
102
RTVSPost2010PropOp51
 70
     0
102
RTVSPost2010Prop52
140
1.0
102
RTVSPost2010PropOp52
 70
     0
102
RTVSPost2010Prop53
 90
        2
102
RTVSPost2010PropOp53
 70
     0
102
RTVSPost2010Prop54
  1
strokes_ogs.tif
102
RTVSPost2010PropOp54
 70
     0
102
RTVSPost2010Prop55
280
     0
102
RTVSPost2010PropOp55
 70
     1
102
RTVSPost2010Prop56
140
1.0
102
RTVSPost2010PropOp56
 70
     0
102
RTVSPost2010Prop57
140
1.0
102
RTVSPost2010PropOp57
 70
     0
  0
XRECORD
  5
14B6
102
{ACAD_REACTORS
330
14B5
102
}
330
14B5
100
AcDbXrecord
280
     1
102
RTVSPost2010Prop28
280
     0
102
RTVSPost2010PropOp28
 70
     1
102
RTVSPost2010Prop29
280
     1
102
RTVSPost2010PropOp29
 70
     1
102
RTVSPost2010Prop30
280
     1
102
RTVSPost2010PropOp30
 70
     1
102
RTVSPost2010Prop31
280
     0
102
RTVSPost2010PropOp31
 70
     1
102
RTVSPost2010Prop32
280
     0
102
RTVSPost2010PropOp32
 70
     1
102
RTVSPost2010Prop33
280
     0
102
RTVSPost2010PropOp33
 70
     1
102
RTVSPost2010Prop34
280
     0
102
RTVSPost2010PropOp34
 70
     1
102
RTVSPost2010Prop35
280
     0
102
RTVSPost2010PropOp35
 70
     1
102
RTVSPost2010Prop36
280
     0
102
RTVSPost2010PropOp36
 70
     1
102
RTVSPost2010Prop37
 90
       50
102
RTVSPost2010PropOp37
 70
     1
102
RTVSPost2010Prop38
140
0.0
102
RTVSPost2010PropOp38
 70
     1
102
RTVSPost2010Prop39
140
1.0
102
RTVSPost2010PropOp39
 70
     1
102
RTVSPost2010Prop40
 90
        0
102
RTVSPost2010PropOp40
 70
     1
102
RTVSPost2010Prop41ColorIndex
 90
       18
102
RTVSPost2010Prop41ColorRGB
 90
-16777216
102
RTVSPost2010PropOp41
 70
     1
102
RTVSPost2010Prop42
 90
       50
102
RTVSPost2010PropOp42
 70
     1
102
RTVSPost2010Prop43
 90
        3
102
RTVSPost2010PropOp43
 70
     1
102
RTVSPost2010Prop44ColorIndex
 90
        5
102
RTVSPost2010Prop44ColorRGB
 90
      255
102
RTVSPost2010PropOp44
 70
     1
102
RTVSPost2010Prop45
280
     0
102
RTVSPost2010PropOp45
 70
     1
102
RTVSPost2010Prop46
 90
       50
102
RTVSPost2010PropOp46
 70
     1
102
RTVSPost2010Prop47
 90
       50
102
RTVSPost2010PropOp47
 70
     1
102
RTVSPost2010Prop48
 90
       50
102
RTVSPost2010PropOp48
 70
     1
102
RTVSPost2010Prop49
280
     0
102
RTVSPost2010PropOp49
 70
     1
102
RTVSPost2010Prop50
 90
       50
102
RTVSPost2010PropOp50
 70
     1
102
RTVSPost2010Prop51ColorIndex
 90
      256
102
RTVSPost2010Prop51ColorRGB
 90
-16777216
102
RTVSPost2010PropOp51
 70
     0
102
RTVSPost2010Prop52
140
1.0
102
RTVSPost2010PropOp52
 70
     0
102
RTVSPost2010Prop53
 90
        2
102
RTVSPost2010PropOp53
 70
     1
102
RTVSPost2010Prop54
  1
strokes_ogs.tif
102
RTVSPost2010PropOp54
 70
     1
102
RTVSPost2010Prop55
280
     0
102
RTVSPost2010PropOp55
 70
     1
102
RTVSPost2010Prop56
140
1.0
102
RTVSPost2010PropOp56
 70
     1
102
RTVSPost2010Prop57
140
1.0
102
RTVSPost2010PropOp57
 70
     1
  0
XRECORD
  5
14C8
102
{ACAD_REACTORS
330
14C7
102
}
330
14C7
100
AcDbXrecord
280
     1
102
RTVSPost2010Prop28
280
     0
102
RTVSPost2010PropOp28
 70
     1
102
RTVSPost2010Prop29
280
     1
102
RTVSPost2010PropOp29
 70
     1
102
RTVSPost2010Prop30
280
     1
102
RTVSPost2010PropOp30
 70
     1
102
RTVSPost2010Prop31
280
     0
102
RTVSPost2010PropOp31
 70
     1
102
RTVSPost2010Prop32
280
     0
102
RTVSPost2010PropOp32
 70
     1
102
RTVSPost2010Prop33
280
     0
102
RTVSPost2010PropOp33
 70
     1
102
RTVSPost2010Prop34
280
     0
102
RTVSPost2010PropOp34
 70
     1
102
RTVSPost2010Prop35
280
     0
102
RTVSPost2010PropOp35
 70
     1
102
RTVSPost2010Prop36
280
     0
102
RTVSPost2010PropOp36
 70
     1
102
RTVSPost2010Prop37
 90
       50
102
RTVSPost2010PropOp37
 70
     0
102
RTVSPost2010Prop38
140
0.0
102
RTVSPost2010PropOp38
 70
     0
102
RTVSPost2010Prop39
140
1.0
102
RTVSPost2010PropOp39
 70
     0
102
RTVSPost2010Prop40
 90
        0
102
RTVSPost2010PropOp40
 70
     0
102
RTVSPost2010Prop41ColorIndex
 90
       18
102
RTVSPost2010Prop41ColorRGB
 90
-16777216
102
RTVSPost2010PropOp41
 70
     0
102
RTVSPost2010Prop42
 90
       50
102
RTVSPost2010PropOp42
 70
     0
102
RTVSPost2010Prop43
 90
        3
102
RTVSPost2010PropOp43
 70
     0
102
RTVSPost2010Prop44ColorIndex
 90
        5
102
RTVSPost2010Prop44ColorRGB
 90
      255
102
RTVSPost2010PropOp44
 70
     0
102
RTVSPost2010Prop45
280
     0
102
RTVSPost2010PropOp45
 70
     1
102
RTVSPost2010Prop46
 90
       50
102
RTVSPost2010PropOp46
 70
     0
102
RTVSPost2010Prop47
 90
       50
102
RTVSPost2010PropOp47
 70
     0
102
RTVSPost2010Prop48
 90
       50
102
RTVSPost2010PropOp48
 70
     0
102
RTVSPost2010Prop49
280
     0
102
RTVSPost2010PropOp49
 70
     1
102
RTVSPost2010Prop50
 90
       50
102
RTVSPost2010PropOp50
 70
     0
102
RTVSPost2010Prop51ColorIndex
 90
      256
102
RTVSPost2010Prop51ColorRGB
 90
-16777216
102
RTVSPost2010PropOp51
 70
     0
102
RTVSPost2010Prop52
140
1.0
102
RTVSPost2010PropOp52
 70
     0
102
RTVSPost2010Prop53
 90
        2
102
RTVSPost2010PropOp53
 70
     0
102
RTVSPost2010Prop54
  1
strokes_ogs.tif
102
RTVSPost2010PropOp54
 70
     0
102
RTVSPost2010Prop55
280
     0
102
RTVSPost2010PropOp55
 70
     1
102
RTVSPost2010Prop56
140
1.0
102
RTVSPost2010PropOp56
 70
     0
102
RTVSPost2010Prop57
140
1.0
102
RTVSPost2010PropOp57
 70
     0
  0
XRECORD
  5
14AE
102
{ACAD_REACTORS
330
14AD
102
}
330
14AD
100
AcDbXrecord
280
     1
102
RTVSPost2010Prop28
280
     0
102
RTVSPost2010PropOp28
 70
     1
102
RTVSPost2010Prop29
280
     1
102
RTVSPost2010PropOp29
 70
     1
102
RTVSPost2010Prop30
280
     1
102
RTVSPost2010PropOp30
 70
     1
102
RTVSPost2010Prop31
280
     0
102
RTVSPost2010PropOp31
 70
     1
102
RTVSPost2010Prop32
280
     0
102
RTVSPost2010PropOp32
 70
     1
102
RTVSPost2010Prop33
280
     0
102
RTVSPost2010PropOp33
 70
     1
102
RTVSPost2010Prop34
280
     0
102
RTVSPost2010PropOp34
 70
     1
102
RTVSPost2010Prop35
280
     0
102
RTVSPost2010PropOp35
 70
     1
102
RTVSPost2010Prop36
280
     0
102
RTVSPost2010PropOp36
 70
     1
102
RTVSPost2010Prop37
 90
       50
102
RTVSPost2010PropOp37
 70
     1
102
RTVSPost2010Prop38
140
0.0
102
RTVSPost2010PropOp38
 70
     1
102
RTVSPost2010Prop39
140
1.0
102
RTVSPost2010PropOp39
 70
     1
102
RTVSPost2010Prop40
 90
        0
102
RTVSPost2010PropOp40
 70
     1
102
RTVSPost2010Prop41ColorIndex
 90
       18
102
RTVSPost2010Prop41ColorRGB
 90
-16777216
102
RTVSPost2010PropOp41
 70
     1
102
RTVSPost2010Prop42
 90
       50
102
RTVSPost2010PropOp42
 70
     1
102
RTVSPost2010Prop43
 90
        3
102
RTVSPost2010PropOp43
 70
     1
102
RTVSPost2010Prop44ColorIndex
 90
        5
102
RTVSPost2010Prop44ColorRGB
 90
      255
102
RTVSPost2010PropOp44
 70
     1
102
RTVSPost2010Prop45
280
     0
102
RTVSPost2010PropOp45
 70
     1
102
RTVSPost2010Prop46
 90
       50
102
RTVSPost2010PropOp46
 70
     1
102
RTVSPost2010Prop47
 90
       50
102
RTVSPost2010PropOp47
 70
     1
102
RTVSPost2010Prop48
 90
       50
102
RTVSPost2010PropOp48
 70
     1
102
RTVSPost2010Prop49
280
     0
102
RTVSPost2010PropOp49
 70
     1
102
RTVSPost2010Prop50
 90
       50
102
RTVSPost2010PropOp50
 70
     1
102
RTVSPost2010Prop51ColorIndex
 90
      256
102
RTVSPost2010Prop51ColorRGB
 90
-16777216
102
RTVSPost2010PropOp51
 70
     0
102
RTVSPost2010Prop52
140
1.0
102
RTVSPost2010PropOp52
 70
     0
102
RTVSPost2010Prop53
 90
        2
102
RTVSPost2010PropOp53
 70
     1
102
RTVSPost2010Prop54
  1
strokes_ogs.tif
102
RTVSPost2010PropOp54
 70
     1
102
RTVSPost2010Prop55
280
     0
102
RTVSPost2010PropOp55
 70
     1
102
RTVSPost2010Prop56
140
1.0
102
RTVSPost2010PropOp56
 70
     1
102
RTVSPost2010Prop57
140
1.0
102
RTVSPost2010PropOp57
 70
     1
  0
XRECORD
  5
14C4
102
{ACAD_REACTORS
330
14C3
102
}
330
14C3
100
AcDbXrecord
280
     1
102
RTVSPost2010Prop28
280
     0
102
RTVSPost2010PropOp28
 70
     1
102
RTVSPost2010Prop29
280
     1
102
RTVSPost2010PropOp29
 70
     1
102
RTVSPost2010Prop30
280
     1
102
RTVSPost2010PropOp30
 70
     1
102
RTVSPost2010Prop31
280
     0
102
RTVSPost2010PropOp31
 70
     1
102
RTVSPost2010Prop32
280
     0
102
RTVSPost2010PropOp32
 70
     1
102
RTVSPost2010Prop33
280
     0
102
RTVSPost2010PropOp33
 70
     1
102
RTVSPost2010Prop34
280
     0
102
RTVSPost2010PropOp34
 70
     1
102
RTVSPost2010Prop35
280
     0
102
RTVSPost2010PropOp35
 70
     1
102
RTVSPost2010Prop36
280
     0
102
RTVSPost2010PropOp36
 70
     1
102
RTVSPost2010Prop37
 90
       50
102
RTVSPost2010PropOp37
 70
     1
102
RTVSPost2010Prop38
140
0.0
102
RTVSPost2010PropOp38
 70
     1
102
RTVSPost2010Prop39
140
1.0
102
RTVSPost2010PropOp39
 70
     1
102
RTVSPost2010Prop40
 90
        0
102
RTVSPost2010PropOp40
 70
     1
102
RTVSPost2010Prop41ColorIndex
 90
       18
102
RTVSPost2010Prop41ColorRGB
 90
-16777216
102
RTVSPost2010PropOp41
 70
     1
102
RTVSPost2010Prop42
 90
       50
102
RTVSPost2010PropOp42
 70
     1
102
RTVSPost2010Prop43
 90
        3
102
RTVSPost2010PropOp43
 70
     1
102
RTVSPost2010Prop44ColorIndex
 90
        5
102
RTVSPost2010Prop44ColorRGB
 90
      255
102
RTVSPost2010PropOp44
 70
     1
102
RTVSPost2010Prop45
280
     0
102
RTVSPost2010PropOp45
 70
     1
102
RTVSPost2010Prop46
 90
       50
102
RTVSPost2010PropOp46
 70
     1
102
RTVSPost2010Prop47
 90
       50
102
RTVSPost2010PropOp47
 70
     1
102
RTVSPost2010Prop48
 90
       50
102
RTVSPost2010PropOp48
 70
     1
102
RTVSPost2010Prop49
280
     0
102
RTVSPost2010PropOp49
 70
     1
102
RTVSPost2010Prop50
 90
       50
102
RTVSPost2010PropOp50
 70
     1
102
RTVSPost2010Prop51ColorIndex
 90
      256
102
RTVSPost2010Prop51ColorRGB
 90
-16777216
102
RTVSPost2010PropOp51
 70
     0
102
RTVSPost2010Prop52
140
1.0
102
RTVSPost2010PropOp52
 70
     0
102
RTVSPost2010Prop53
 90
        2
102
RTVSPost2010PropOp53
 70
     1
102
RTVSPost2010Prop54
  1
strokes_ogs.tif
102
RTVSPost2010PropOp54
 70
     1
102
RTVSPost2010Prop55
280
     0
102
RTVSPost2010PropOp55
 70
     1
102
RTVSPost2010Prop56
140
1.0
102
RTVSPost2010PropOp56
 70
     1
102
RTVSPost2010Prop57
140
1.0
102
RTVSPost2010PropOp57
 70
     1
  0
XRECORD
  5
14C2
102
{ACAD_REACTORS
330
14C1
102
}
330
14C1
100
AcDbXrecord
280
     1
102
RTVSPost2010Prop28
280
     0
102
RTVSPost2010PropOp28
 70
     1
102
RTVSPost2010Prop29
280
     1
102
RTVSPost2010PropOp29
 70
     1
102
RTVSPost2010Prop30
280
     1
102
RTVSPost2010PropOp30
 70
     1
102
RTVSPost2010Prop31
280
     0
102
RTVSPost2010PropOp31
 70
     1
102
RTVSPost2010Prop32
280
     0
102
RTVSPost2010PropOp32
 70
     1
102
RTVSPost2010Prop33
280
     0
102
RTVSPost2010PropOp33
 70
     1
102
RTVSPost2010Prop34
280
     0
102
RTVSPost2010PropOp34
 70
     1
102
RTVSPost2010Prop35
280
     0
102
RTVSPost2010PropOp35
 70
     1
102
RTVSPost2010Prop36
280
     0
102
RTVSPost2010PropOp36
 70
     1
102
RTVSPost2010Prop37
 90
       50
102
RTVSPost2010PropOp37
 70
     1
102
RTVSPost2010Prop38
140
0.0
102
RTVSPost2010PropOp38
 70
     1
102
RTVSPost2010Prop39
140
1.0
102
RTVSPost2010PropOp39
 70
     1
102
RTVSPost2010Prop40
 90
        0
102
RTVSPost2010PropOp40
 70
     1
102
RTVSPost2010Prop41ColorIndex
 90
       18
102
RTVSPost2010Prop41ColorRGB
 90
-16777216
102
RTVSPost2010PropOp41
 70
     1
102
RTVSPost2010Prop42
 90
       50
102
RTVSPost2010PropOp42
 70
     1
102
RTVSPost2010Prop43
 90
        3
102
RTVSPost2010PropOp43
 70
     1
102
RTVSPost2010Prop44ColorIndex
 90
        5
102
RTVSPost2010Prop44ColorRGB
 90
      255
102
RTVSPost2010PropOp44
 70
     1
102
RTVSPost2010Prop45
280
     0
102
RTVSPost2010PropOp45
 70
     1
102
RTVSPost2010Prop46
 90
       50
102
RTVSPost2010PropOp46
 70
     1
102
RTVSPost2010Prop47
 90
       50
102
RTVSPost2010PropOp47
 70
     1
102
RTVSPost2010Prop48
 90
       50
102
RTVSPost2010PropOp48
 70
     1
102
RTVSPost2010Prop49
280
     0
102
RTVSPost2010PropOp49
 70
     1
102
RTVSPost2010Prop50
 90
       50
102
RTVSPost2010PropOp50
 70
     1
102
RTVSPost2010Prop51ColorIndex
 90
      256
102
RTVSPost2010Prop51ColorRGB
 90
-16777216
102
RTVSPost2010PropOp51
 70
     0
102
RTVSPost2010Prop52
140
1.0
102
RTVSPost2010PropOp52
 70
     0
102
RTVSPost2010Prop53
 90
        2
102
RTVSPost2010PropOp53
 70
     1
102
RTVSPost2010Prop54
  1
strokes_ogs.tif
102
RTVSPost2010PropOp54
 70
     1
102
RTVSPost2010Prop55
280
     0
102
RTVSPost2010PropOp55
 70
     1
102
RTVSPost2010Prop56
140
1.0
102
RTVSPost2010PropOp56
 70
     1
102
RTVSPost2010Prop57
140
1.0
102
RTVSPost2010PropOp57
 70
     1
  0
XRECORD
  5
14BC
102
{ACAD_REACTORS
330
14BB
102
}
330
14BB
100
AcDbXrecord
280
     1
102
RTVSPost2010Prop28
280
     0
102
RTVSPost2010PropOp28
 70
     1
102
RTVSPost2010Prop29
280
     1
102
RTVSPost2010PropOp29
 70
     1
102
RTVSPost2010Prop30
280
     1
102
RTVSPost2010PropOp30
 70
     1
102
RTVSPost2010Prop31
280
     0
102
RTVSPost2010PropOp31
 70
     1
102
RTVSPost2010Prop32
280
     0
102
RTVSPost2010PropOp32
 70
     1
102
RTVSPost2010Prop33
280
     0
102
RTVSPost2010PropOp33
 70
     1
102
RTVSPost2010Prop34
280
     0
102
RTVSPost2010PropOp34
 70
     1
102
RTVSPost2010Prop35
280
     0
102
RTVSPost2010PropOp35
 70
     1
102
RTVSPost2010Prop36
280
     0
102
RTVSPost2010PropOp36
 70
     1
102
RTVSPost2010Prop37
 90
       50
102
RTVSPost2010PropOp37
 70
     1
102
RTVSPost2010Prop38
140
0.0
102
RTVSPost2010PropOp38
 70
     1
102
RTVSPost2010Prop39
140
1.0
102
RTVSPost2010PropOp39
 70
     1
102
RTVSPost2010Prop40
 90
        0
102
RTVSPost2010PropOp40
 70
     1
102
RTVSPost2010Prop41ColorIndex
 90
       18
102
RTVSPost2010Prop41ColorRGB
 90
-16777216
102
RTVSPost2010PropOp41
 70
     1
102
RTVSPost2010Prop42
 90
       50
102
RTVSPost2010PropOp42
 70
     1
102
RTVSPost2010Prop43
 90
        3
102
RTVSPost2010PropOp43
 70
     1
102
RTVSPost2010Prop44ColorIndex
 90
        5
102
RTVSPost2010Prop44ColorRGB
 90
      255
102
RTVSPost2010PropOp44
 70
     1
102
RTVSPost2010Prop45
280
     0
102
RTVSPost2010PropOp45
 70
     1
102
RTVSPost2010Prop46
 90
       50
102
RTVSPost2010PropOp46
 70
     1
102
RTVSPost2010Prop47
 90
       50
102
RTVSPost2010PropOp47
 70
     1
102
RTVSPost2010Prop48
 90
       50
102
RTVSPost2010PropOp48
 70
     1
102
RTVSPost2010Prop49
280
     0
102
RTVSPost2010PropOp49
 70
     1
102
RTVSPost2010Prop50
 90
       50
102
RTVSPost2010PropOp50
 70
     1
102
RTVSPost2010Prop51ColorIndex
 90
      256
102
RTVSPost2010Prop51ColorRGB
 90
-16777216
102
RTVSPost2010PropOp51
 70
     0
102
RTVSPost2010Prop52
140
1.0
102
RTVSPost2010PropOp52
 70
     0
102
RTVSPost2010Prop53
 90
        2
102
RTVSPost2010PropOp53
 70
     1
102
RTVSPost2010Prop54
  1
strokes_ogs.tif
102
RTVSPost2010PropOp54
 70
     1
102
RTVSPost2010Prop55
280
     0
102
RTVSPost2010PropOp55
 70
     1
102
RTVSPost2010Prop56
140
1.0
102
RTVSPost2010PropOp56
 70
     1
102
RTVSPost2010Prop57
140
1.0
102
RTVSPost2010PropOp57
 70
     1
  0
XRECORD
  5
14BE
102
{ACAD_REACTORS
330
14BD
102
}
330
14BD
100
AcDbXrecord
280
     1
102
RTVSPost2010Prop28
280
     0
102
RTVSPost2010PropOp28
 70
     1
102
RTVSPost2010Prop29
280
     1
102
RTVSPost2010PropOp29
 70
     1
102
RTVSPost2010Prop30
280
     1
102
RTVSPost2010PropOp30
 70
     1
102
RTVSPost2010Prop31
280
     0
102
RTVSPost2010PropOp31
 70
     1
102
RTVSPost2010Prop32
280
     0
102
RTVSPost2010PropOp32
 70
     1
102
RTVSPost2010Prop33
280
     0
102
RTVSPost2010PropOp33
 70
     1
102
RTVSPost2010Prop34
280
     0
102
RTVSPost2010PropOp34
 70
     1
102
RTVSPost2010Prop35
280
     0
102
RTVSPost2010PropOp35
 70
     1
102
RTVSPost2010Prop36
280
     0
102
RTVSPost2010PropOp36
 70
     1
102
RTVSPost2010Prop37
 90
       50
102
RTVSPost2010PropOp37
 70
     1
102
RTVSPost2010Prop38
140
0.0
102
RTVSPost2010PropOp38
 70
     1
102
RTVSPost2010Prop39
140
1.0
102
RTVSPost2010PropOp39
 70
     1
102
RTVSPost2010Prop40
 90
        0
102
RTVSPost2010PropOp40
 70
     1
102
RTVSPost2010Prop41ColorIndex
 90
       18
102
RTVSPost2010Prop41ColorRGB
 90
-16777216
102
RTVSPost2010PropOp41
 70
     1
102
RTVSPost2010Prop42
 90
       50
102
RTVSPost2010PropOp42
 70
     1
102
RTVSPost2010Prop43
 90
        3
102
RTVSPost2010PropOp43
 70
     1
102
RTVSPost2010Prop44ColorIndex
 90
        5
102
RTVSPost2010Prop44ColorRGB
 90
      255
102
RTVSPost2010PropOp44
 70
     1
102
RTVSPost2010Prop45
280
     0
102
RTVSPost2010PropOp45
 70
     1
102
RTVSPost2010Prop46
 90
       50
102
RTVSPost2010PropOp46
 70
     1
102
RTVSPost2010Prop47
 90
       50
102
RTVSPost2010PropOp47
 70
     1
102
RTVSPost2010Prop48
 90
       50
102
RTVSPost2010PropOp48
 70
     1
102
RTVSPost2010Prop49
280
     0
102
RTVSPost2010PropOp49
 70
     1
102
RTVSPost2010Prop50
 90
       50
102
RTVSPost2010PropOp50
 70
     1
102
RTVSPost2010Prop51ColorIndex
 90
      256
102
RTVSPost2010Prop51ColorRGB
 90
-16777216
102
RTVSPost2010PropOp51
 70
     0
102
RTVSPost2010Prop52
140
1.0
102
RTVSPost2010PropOp52
 70
     0
102
RTVSPost2010Prop53
 90
        2
102
RTVSPost2010PropOp53
 70
     1
102
RTVSPost2010Prop54
  1
strokes_ogs.tif
102
RTVSPost2010PropOp54
 70
     1
102
RTVSPost2010Prop55
280
     0
102
RTVSPost2010PropOp55
 70
     1
102
RTVSPost2010Prop56
140
1.0
102
RTVSPost2010PropOp56
 70
     1
102
RTVSPost2010Prop57
140
1.0
102
RTVSPost2010PropOp57
 70
     1
  0
XRECORD
  5
14B4
102
{ACAD_REACTORS
330
14B3
102
}
330
14B3
100
AcDbXrecord
280
     1
102
RTVSPost2010Prop28
280
     0
102
RTVSPost2010PropOp28
 70
     1
102
RTVSPost2010Prop29
280
     1
102
RTVSPost2010PropOp29
 70
     1
102
RTVSPost2010Prop30
280
     1
102
RTVSPost2010PropOp30
 70
     1
102
RTVSPost2010Prop31
280
     0
102
RTVSPost2010PropOp31
 70
     1
102
RTVSPost2010Prop32
280
     0
102
RTVSPost2010PropOp32
 70
     1
102
RTVSPost2010Prop33
280
     0
102
RTVSPost2010PropOp33
 70
     1
102
RTVSPost2010Prop34
280
     0
102
RTVSPost2010PropOp34
 70
     1
102
RTVSPost2010Prop35
280
     0
102
RTVSPost2010PropOp35
 70
     1
102
RTVSPost2010Prop36
280
     0
102
RTVSPost2010PropOp36
 70
     1
102
RTVSPost2010Prop37
 90
       50
102
RTVSPost2010PropOp37
 70
     1
102
RTVSPost2010Prop38
140
0.0
102
RTVSPost2010PropOp38
 70
     1
102
RTVSPost2010Prop39
140
1.0
102
RTVSPost2010PropOp39
 70
     1
102
RTVSPost2010Prop40
 90
        0
102
RTVSPost2010PropOp40
 70
     1
102
RTVSPost2010Prop41ColorIndex
 90
       18
102
RTVSPost2010Prop41ColorRGB
 90
-16777216
102
RTVSPost2010PropOp41
 70
     1
102
RTVSPost2010Prop42
 90
       50
102
RTVSPost2010PropOp42
 70
     1
102
RTVSPost2010Prop43
 90
        3
102
RTVSPost2010PropOp43
 70
     1
102
RTVSPost2010Prop44ColorIndex
 90
        5
102
RTVSPost2010Prop44ColorRGB
 90
      255
102
RTVSPost2010PropOp44
 70
     1
102
RTVSPost2010Prop45
280
     0
102
RTVSPost2010PropOp45
 70
     1
102
RTVSPost2010Prop46
 90
       50
102
RTVSPost2010PropOp46
 70
     1
102
RTVSPost2010Prop47
 90
       50
102
RTVSPost2010PropOp47
 70
     1
102
RTVSPost2010Prop48
 90
       50
102
RTVSPost2010PropOp48
 70
     1
102
RTVSPost2010Prop49
280
     0
102
RTVSPost2010PropOp49
 70
     1
102
RTVSPost2010Prop50
 90
       50
102
RTVSPost2010PropOp50
 70
     1
102
RTVSPost2010Prop51ColorIndex
 90
      256
102
RTVSPost2010Prop51ColorRGB
 90
-16777216
102
RTVSPost2010PropOp51
 70
     0
102
RTVSPost2010Prop52
140
1.0
102
RTVSPost2010PropOp52
 70
     0
102
RTVSPost2010Prop53
 90
        2
102
RTVSPost2010PropOp53
 70
     1
102
RTVSPost2010Prop54
  1
strokes_ogs.tif
102
RTVSPost2010PropOp54
 70
     1
102
RTVSPost2010Prop55
280
     0
102
RTVSPost2010PropOp55
 70
     1
102
RTVSPost2010Prop56
140
1.0
102
RTVSPost2010PropOp56
 70
     1
102
RTVSPost2010Prop57
140
1.0
102
RTVSPost2010PropOp57
 70
     1
  0
XRECORD
  5
14A8
102
{ACAD_REACTORS
330
14A7
102
}
330
14A7
100
AcDbXrecord
280
     1
102
RTVSPost2010Prop28
280
     0
102
RTVSPost2010PropOp28
 70
     1
102
RTVSPost2010Prop29
280
     1
102
RTVSPost2010PropOp29
 70
     1
102
RTVSPost2010Prop30
280
     1
102
RTVSPost2010PropOp30
 70
     1
102
RTVSPost2010Prop31
280
     0
102
RTVSPost2010PropOp31
 70
     1
102
RTVSPost2010Prop32
280
     0
102
RTVSPost2010PropOp32
 70
     1
102
RTVSPost2010Prop33
280
     0
102
RTVSPost2010PropOp33
 70
     1
102
RTVSPost2010Prop34
280
     0
102
RTVSPost2010PropOp34
 70
     1
102
RTVSPost2010Prop35
280
     0
102
RTVSPost2010PropOp35
 70
     1
102
RTVSPost2010Prop36
280
     0
102
RTVSPost2010PropOp36
 70
     1
102
RTVSPost2010Prop37
 90
       50
102
RTVSPost2010PropOp37
 70
     1
102
RTVSPost2010Prop38
140
0.0
102
RTVSPost2010PropOp38
 70
     1
102
RTVSPost2010Prop39
140
1.0
102
RTVSPost2010PropOp39
 70
     1
102
RTVSPost2010Prop40
 90
        0
102
RTVSPost2010PropOp40
 70
     1
102
RTVSPost2010Prop41ColorIndex
 90
       18
102
RTVSPost2010Prop41ColorRGB
 90
-16777216
102
RTVSPost2010PropOp41
 70
     1
102
RTVSPost2010Prop42
 90
       50
102
RTVSPost2010PropOp42
 70
     1
102
RTVSPost2010Prop43
 90
        3
102
RTVSPost2010PropOp43
 70
     1
102
RTVSPost2010Prop44ColorIndex
 90
        5
102
RTVSPost2010Prop44ColorRGB
 90
      255
102
RTVSPost2010PropOp44
 70
     1
102
RTVSPost2010Prop45
280
     0
102
RTVSPost2010PropOp45
 70
     1
102
RTVSPost2010Prop46
 90
       50
102
RTVSPost2010PropOp46
 70
     1
102
RTVSPost2010Prop47
 90
       50
102
RTVSPost2010PropOp47
 70
     1
102
RTVSPost2010Prop48
 90
       50
102
RTVSPost2010PropOp48
 70
     1
102
RTVSPost2010Prop49
280
     0
102
RTVSPost2010PropOp49
 70
     1
102
RTVSPost2010Prop50
 90
       50
102
RTVSPost2010PropOp50
 70
     1
102
RTVSPost2010Prop51ColorIndex
 90
      256
102
RTVSPost2010Prop51ColorRGB
 90
-16777216
102
RTVSPost2010PropOp51
 70
     0
102
RTVSPost2010Prop52
140
1.0
102
RTVSPost2010PropOp52
 70
     0
102
RTVSPost2010Prop53
 90
        2
102
RTVSPost2010PropOp53
 70
     1
102
RTVSPost2010Prop54
  1
strokes_ogs.tif
102
RTVSPost2010PropOp54
 70
     1
102
RTVSPost2010Prop55
280
     0
102
RTVSPost2010PropOp55
 70
     1
102
RTVSPost2010Prop56
140
1.0
102
RTVSPost2010PropOp56
 70
     1
102
RTVSPost2010Prop57
140
1.0
102
RTVSPost2010PropOp57
 70
     1
  0
XRECORD
  5
14C0
102
{ACAD_REACTORS
330
14BF
102
}
330
14BF
100
AcDbXrecord
280
     1
102
RTVSPost2010Prop28
280
     0
102
RTVSPost2010PropOp28
 70
     1
102
RTVSPost2010Prop29
280
     1
102
RTVSPost2010PropOp29
 70
     1
102
RTVSPost2010Prop30
280
     1
102
RTVSPost2010PropOp30
 70
     1
102
RTVSPost2010Prop31
280
     0
102
RTVSPost2010PropOp31
 70
     1
102
RTVSPost2010Prop32
280
     0
102
RTVSPost2010PropOp32
 70
     1
102
RTVSPost2010Prop33
280
     0
102
RTVSPost2010PropOp33
 70
     1
102
RTVSPost2010Prop34
280
     0
102
RTVSPost2010PropOp34
 70
     1
102
RTVSPost2010Prop35
280
     0
102
RTVSPost2010PropOp35
 70
     1
102
RTVSPost2010Prop36
280
     0
102
RTVSPost2010PropOp36
 70
     1
102
RTVSPost2010Prop37
 90
       50
102
RTVSPost2010PropOp37
 70
     1
102
RTVSPost2010Prop38
140
0.0
102
RTVSPost2010PropOp38
 70
     1
102
RTVSPost2010Prop39
140
1.0
102
RTVSPost2010PropOp39
 70
     1
102
RTVSPost2010Prop40
 90
        0
102
RTVSPost2010PropOp40
 70
     1
102
RTVSPost2010Prop41ColorIndex
 90
       18
102
RTVSPost2010Prop41ColorRGB
 90
-16777216
102
RTVSPost2010PropOp41
 70
     1
102
RTVSPost2010Prop42
 90
       50
102
RTVSPost2010PropOp42
 70
     1
102
RTVSPost2010Prop43
 90
        3
102
RTVSPost2010PropOp43
 70
     1
102
RTVSPost2010Prop44ColorIndex
 90
        5
102
RTVSPost2010Prop44ColorRGB
 90
      255
102
RTVSPost2010PropOp44
 70
     1
102
RTVSPost2010Prop45
280
     0
102
RTVSPost2010PropOp45
 70
     1
102
RTVSPost2010Prop46
 90
       50
102
RTVSPost2010PropOp46
 70
     1
102
RTVSPost2010Prop47
 90
       50
102
RTVSPost2010PropOp47
 70
     1
102
RTVSPost2010Prop48
 90
       50
102
RTVSPost2010PropOp48
 70
     1
102
RTVSPost2010Prop49
280
     0
102
RTVSPost2010PropOp49
 70
     1
102
RTVSPost2010Prop50
 90
       50
102
RTVSPost2010PropOp50
 70
     1
102
RTVSPost2010Prop51ColorIndex
 90
      256
102
RTVSPost2010Prop51ColorRGB
 90
-16777216
102
RTVSPost2010PropOp51
 70
     0
102
RTVSPost2010Prop52
140
1.0
102
RTVSPost2010PropOp52
 70
     0
102
RTVSPost2010Prop53
 90
        2
102
RTVSPost2010PropOp53
 70
     1
102
RTVSPost2010Prop54
  1
strokes_ogs.tif
102
RTVSPost2010PropOp54
 70
     1
102
RTVSPost2010Prop55
280
     0
102
RTVSPost2010PropOp55
 70
     1
102
RTVSPost2010Prop56
140
1.0
102
RTVSPost2010PropOp56
 70
     1
102
RTVSPost2010Prop57
140
1.0
102
RTVSPost2010PropOp57
 70
     1
  0
ENDSEC
  0
EOF
