  0
SECTION
  2
HEADER
  9
$ACADVER
  1
AC1021
  9
$ACADMAINTVER
 70
    50
  9
$DWGCODEPAGE
  3
ANSI_932
  9
$LASTSAVEDBY
  1
user26
  9
$INSBASE
 10
0.0
 20
0.0
 30
0.0
  9
$EXTMIN
 10
74.61532260008967
 20
161.9023783800022
 30
0.0
  9
$EXTMAX
 10
139.3817859617186
 20
219.7390882381708
 30
0.0
  9
$LIMMIN
 10
0.0
 20
0.0
  9
$LIMMAX
 10
210.0
 20
297.0
  9
$ORTHOMODE
 70
     1
  9
$REGENMODE
 70
     1
  9
$FILLMODE
 70
     1
  9
$QTEXTMODE
 70
     0
  9
$MIRRTEXT
 70
     1
  9
$LTSCALE
 40
1.0
  9
$ATTMODE
 70
     1
  9
$TEXTSIZE
 40
2.5
  9
$TRACEWID
 40
1.0
  9
$TEXTSTYLE
  7
Standard
  9
$CLAYER
  8
ハッチング
  9
$CELTYPE
  6
ByLayer
  9
$CECOLOR
 62
   256
  9
$CELTSCALE
 40
1.0
  9
$DISPSILH
 70
     0
  9
$DIMSCALE
 40
1.0
  9
$DIMASZ
 40
2.5
  9
$DIMEXO
 40
0.625
  9
$DIMDLI
 40
3.75
  9
$DIMRND
 40
0.0
  9
$DIMDLE
 40
0.0
  9
$DIMEXE
 40
1.25
  9
$DIMTP
 40
0.0
  9
$DIMTM
 40
0.0
  9
$DIMTXT
 40
2.5
  9
$DIMCEN
 40
2.5
  9
$DIMTSZ
 40
0.0
  9
$DIMTOL
 70
     0
  9
$DIMLIM
 70
     0
  9
$DIMTIH
 70
     0
  9
$DIMTOH
 70
     0
  9
$DIMSE1
 70
     0
  9
$DIMSE2
 70
     0
  9
$DIMTAD
 70
     1
  9
$DIMZIN
 70
     8
  9
$DIMBLK
  1

  9
$DIMASO
 70
     1
  9
$DIMSHO
 70
     1
  9
$DIMPOST
  1

  9
$DIMAPOST
  1

  9
$DIMALT
 70
     0
  9
$DIMALTD
 70
     3
  9
$DIMALTF
 40
0.03937007874016
  9
$DIMLFAC
 40
1.0
  9
$DIMTOFL
 70
     1
  9
$DIMTVP
 40
0.0
  9
$DIMTIX
 70
     0
  9
$DIMSOXD
 70
     0
  9
$DIMSAH
 70
     0
  9
$DIMBLK1
  1

  9
$DIMBLK2
  1

  9
$DIMSTYLE
  2
ISO-25
  9
$DIMCLRD
 70
     0
  9
$DIMCLRE
 70
     0
  9
$DIMCLRT
 70
     0
  9
$DIMTFAC
 40
1.0
  9
$DIMGAP
 40
1.0
  9
$DIMJUST
 70
     0
  9
$DIMSD1
 70
     0
  9
$DIMSD2
 70
     0
  9
$DIMTOLJ
 70
     0
  9
$DIMTZIN
 70
     8
  9
$DIMALTZ
 70
     0
  9
$DIMALTTZ
 70
     0
  9
$DIMUPT
 70
     0
  9
$DIMDEC
 70
     3
  9
$DIMTDEC
 70
     3
  9
$DIMALTU
 70
     2
  9
$DIMALTTD
 70
     3
  9
$DIMTXSTY
  7
寸法
  9
$DIMAUNIT
 70
     0
  9
$DIMADEC
 70
     0
  9
$DIMALTRND
 40
0.0
  9
$DIMAZIN
 70
     0
  9
$DIMDSEP
 70
    46
  9
$DIMATFIT
 70
     3
  9
$DIMFRAC
 70
     0
  9
$DIMLDRBLK
  1

  9
$DIMLUNIT
 70
     2
  9
$DIMLWD
 70
    -2
  9
$DIMLWE
 70
    -2
  9
$DIMTMOVE
 70
     0
  9
$DIMFXL
 40
1.0
  9
$DIMFXLON
 70
     0
  9
$DIMJOGANG
 40
0.7853981633974483
  9
$DIMTFILL
 70
     0
  9
$DIMTFILLCLR
 70
     0
  9
$DIMARCSYM
 70
     0
  9
$DIMLTYPE
  6

  9
$DIMLTEX1
  6

  9
$DIMLTEX2
  6

  9
$LUNITS
 70
     2
  9
$LUPREC
 70
     4
  9
$SKETCHINC
 40
1.0
  9
$FILLETRAD
 40
10.0
  9
$AUNITS
 70
     0
  9
$AUPREC
 70
     0
  9
$MENU
  1
.
  9
$ELEVATION
 40
0.0
  9
$PELEVATION
 40
0.0
  9
$THICKNESS
 40
0.0
  9
$LIMCHECK
 70
     0
  9
$CHAMFERA
 40
10.0
  9
$CHAMFERB
 40
10.0
  9
$CHAMFERC
 40
20.0
  9
$CHAMFERD
 40
0.0
  9
$SKPOLY
 70
     0
  9
$TDCREATE
 40
2453753.402714838
  9
$TDUCREATE
 40
2453753.027714838
  9
$TDUPDATE
 40
2457303.673139190
  9
$TDUUPDATE
 40
2457303.298139190
  9
$TDINDWG
 40
0.0207139236
  9
$TDUSRTIMER
 40
0.0207139236
  9
$USRTIMER
 70
     1
  9
$ANGBASE
 50
0.0
  9
$ANGDIR
 70
     0
  9
$PDMODE
 70
     0
  9
$PDSIZE
 40
0.0
  9
$PLINEWID
 40
0.0
  9
$SPLFRAME
 70
     0
  9
$SPLINETYPE
 70
     6
  9
$SPLINESEGS
 70
     8
  9
$HANDSEED
  5
EBC
  9
$SURFTAB1
 70
     6
  9
$SURFTAB2
 70
     6
  9
$SURFTYPE
 70
     6
  9
$SURFU
 70
     6
  9
$SURFV
 70
     6
  9
$UCSBASE
  2

  9
$UCSNAME
  2

  9
$UCSORG
 10
0.0
 20
0.0
 30
0.0
  9
$UCSXDIR
 10
1.0
 20
0.0
 30
0.0
  9
$UCSYDIR
 10
0.0
 20
1.0
 30
0.0
  9
$UCSORTHOREF
  2

  9
$UCSORTHOVIEW
 70
     0
  9
$UCSORGTOP
 10
0.0
 20
0.0
 30
0.0
  9
$UCSORGBOTTOM
 10
0.0
 20
0.0
 30
0.0
  9
$UCSORGLEFT
 10
0.0
 20
0.0
 30
0.0
  9
$UCSORGRIGHT
 10
0.0
 20
0.0
 30
0.0
  9
$UCSORGFRONT
 10
0.0
 20
0.0
 30
0.0
  9
$UCSORGBACK
 10
0.0
 20
0.0
 30
0.0
  9
$PUCSBASE
  2

  9
$PUCSNAME
  2

  9
$PUCSORG
 10
0.0
 20
0.0
 30
0.0
  9
$PUCSXDIR
 10
1.0
 20
0.0
 30
0.0
  9
$PUCSYDIR
 10
0.0
 20
1.0
 30
0.0
  9
$PUCSORTHOREF
  2

  9
$PUCSORTHOVIEW
 70
     0
  9
$PUCSORGTOP
 10
0.0
 20
0.0
 30
0.0
  9
$PUCSORGBOTTOM
 10
0.0
 20
0.0
 30
0.0
  9
$PUCSORGLEFT
 10
0.0
 20
0.0
 30
0.0
  9
$PUCSORGRIGHT
 10
0.0
 20
0.0
 30
0.0
  9
$PUCSORGFRONT
 10
0.0
 20
0.0
 30
0.0
  9
$PUCSORGBACK
 10
0.0
 20
0.0
 30
0.0
  9
$USERI1
 70
     0
  9
$USERI2
 70
     0
  9
$USERI3
 70
     0
  9
$USERI4
 70
     0
  9
$USERI5
 70
     0
  9
$USERR1
 40
0.0
  9
$USERR2
 40
0.0
  9
$USERR3
 40
0.0
  9
$USERR4
 40
0.0
  9
$USERR5
 40
0.0
  9
$WORLDVIEW
 70
     1
  9
$SHADEDGE
 70
     3
  9
$SHADEDIF
 70
    70
  9
$TILEMODE
 70
     1
  9
$MAXACTVP
 70
    64
  9
$PINSBASE
 10
0.0
 20
0.0
 30
0.0
  9
$PLIMCHECK
 70
     0
  9
$PEXTMIN
 10
1.000000000000000E+20
 20
1.000000000000000E+20
 30
1.000000000000000E+20
  9
$PEXTMAX
 10
-1.000000000000000E+20
 20
-1.000000000000000E+20
 30
-1.000000000000000E+20
  9
$PLIMMIN
 10
0.0
 20
0.0
  9
$PLIMMAX
 10
420.0
 20
297.0
  9
$UNITMODE
 70
     0
  9
$VISRETAIN
 70
     1
  9
$PLINEGEN
 70
     0
  9
$PSLTSCALE
 70
     1
  9
$TREEDEPTH
 70
  3020
  9
$CMLSTYLE
  2
Standard
  9
$CMLJUST
 70
     0
  9
$CMLSCALE
 40
20.0
  9
$PROXYGRAPHICS
 70
     1
  9
$MEASUREMENT
 70
     1
  9
$CELWEIGHT
370
    -1
  9
$ENDCAPS
280
     0
  9
$JOINSTYLE
280
     0
  9
$LWDISPLAY
290
     0
  9
$INSUNITS
 70
     4
  9
$HYPERLINKBASE
  1

  9
$STYLESHEET
  1
monochrome.ctb
  9
$XEDIT
290
     1
  9
$CEPSNTYPE
380
     0
  9
$PSTYLEMODE
290
     1
  9
$FINGERPRINTGUID
  2
{FDEAD578-A652-11D2-9A35-0060089B3A3F}
  9
$VERSIONGUID
  2
{5F9C533F-ACDC-46A2-BAC9-29D481CB69F0}
  9
$EXTNAMES
290
     1
  9
$PSVPSCALE
 40
0.0
  9
$OLESTARTUP
290
     0
  9
$SORTENTS
280
   127
  9
$INDEXCTL
280
     0
  9
$HIDETEXT
280
     0
  9
$XCLIPFRAME
290
     0
  9
$HALOGAP
280
     0
  9
$OBSCOLOR
 70
   257
  9
$OBSLTYPE
280
     0
  9
$INTERSECTIONDISPLAY
280
     0
  9
$INTERSECTIONCOLOR
 70
   257
  9
$DIMASSOC
280
     1
  9
$PROJECTNAME
  1

  9
$CAMERADISPLAY
290
     0
  9
$LENSLENGTH
 40
50.0
  9
$CAMERAHEIGHT
 40
0.0
  9
$STEPSPERSEC
 40
2.0
  9
$STEPSIZE
 40
6.0
  9
$3DDWFPREC
 40
2.0
  9
$PSOLWIDTH
 40
0.25
  9
$PSOLHEIGHT
 40
4.0
  9
$LOFTANG1
 40
1.570796326794896
  9
$LOFTANG2
 40
1.570796326794896
  9
$LOFTMAG1
 40
0.0
  9
$LOFTMAG2
 40
0.0
  9
$LOFTPARAM
 70
     7
  9
$LOFTNORMALS
280
     1
  9
$LATITUDE
 40
37.795
  9
$LONGITUDE
 40
-122.394
  9
$NORTHDIRECTION
 40
0.0
  9
$TIMEZONE
 70
 -8000
  9
$LIGHTGLYPHDISPLAY
280
     1
  9
$TILEMODELIGHTSYNCH
280
     1
  9
$CMATERIAL
347
DD8
  9
$SOLIDHIST
280
     0
  9
$SHOWHIST
280
     1
  9
$DWFFRAME
280
     2
  9
$DGNFRAME
280
     0
  9
$REALWORLDSCALE
290
     1
  9
$INTERFERECOLOR
 62
     1
  9
$INTERFEREOBJVS
345
DFA
  9
$INTERFEREVPVS
346
DF7
  9
$CSHADOW
280
     0
  9
$SHADOWPLANELOCATION
 40
0.0
  0
ENDSEC
  0
SECTION
  2
CLASSES
  0
CLASS
  1
ACDBDICTIONARYWDFLT
  2
AcDbDictionaryWithDefault
  3
ObjectDBX Classes
 90
        0
 91
        1
280
     0
281
     0
  0
CLASS
  1
MATERIAL
  2
AcDbMaterial
  3
ObjectDBX Classes
 90
     1153
 91
        3
280
     0
281
     0
  0
CLASS
  1
VISUALSTYLE
  2
AcDbVisualStyle
  3
ObjectDBX Classes
 90
     4095
 91
       24
280
     0
281
     0
  0
CLASS
  1
TABLESTYLE
  2
AcDbTableStyle
  3
ObjectDBX Classes
 90
     4095
 91
        1
280
     0
281
     0
  0
CLASS
  1
SCALE
  2
AcDbScale
  3
ObjectDBX Classes
 90
     1153
 91
       17
280
     0
281
     0
  0
CLASS
  1
MLEADERSTYLE
  2
AcDbMLeaderStyle
  3
ACDB_MLEADERSTYLE_CLASS
 90
     4095
 91
        1
280
     0
281
     0
  0
CLASS
  1
ACDBSECTIONVIEWSTYLE
  2
AcDbSectionViewStyle
  3
ObjectDBX Classes
 90
     1025
 91
        1
280
     0
281
     0
  0
CLASS
  1
ACDBDETAILVIEWSTYLE
  2
AcDbDetailViewStyle
  3
ObjectDBX Classes
 90
     1025
 91
        1
280
     0
281
     0
  0
CLASS
  1
DICTIONARYVAR
  2
AcDbDictionaryVar
  3
ObjectDBX Classes
 90
        0
 91
       19
280
     0
281
     0
  0
CLASS
  1
CELLSTYLEMAP
  2
AcDbCellStyleMap
  3
ObjectDBX Classes
 90
     1152
 91
        1
280
     0
281
     0
  0
ENDSEC
  0
SECTION
  2
TABLES
  0
TABLE
  2
VPORT
  5
8
330
0
100
AcDbSymbolTable
 70
     1
  0
VPORT
  5
DD5
330
8
100
AcDbSymbolTableRecord
100
AcDbViewportTableRecord
  2
*Active
 70
     0
 10
0.0
 20
0.0
 11
1.0
 21
1.0
 12
130.1701234721272
 22
188.7682211636735
 13
0.0
 23
0.0
 14
10.0
 24
10.0
 15
10.0
 25
10.0
 16
0.0
 26
0.0
 36
1.0
 17
0.0
 27
0.0
 37
0.0
 40
105.1414768026596
 41
2.172222222222222
 42
50.0
 43
0.0
 44
0.0
 50
0.0
 51
0.0
 71
     0
 72
   100
 73
     1
 74
     3
 75
     0
 76
     0
 77
     0
 78
     0
281
     0
 65
     1
110
0.0
120
0.0
130
0.0
111
1.0
121
0.0
131
0.0
112
0.0
122
1.0
132
0.0
 79
     0
146
0.0
348
DF6
 60
     3
 61
     5
292
     1
282
     1
141
0.0
142
0.0
 63
   250
421
  3355443
1001
ACAD_NAV_VCDISPLAY
1070
     3
  0
ENDTAB
  0
TABLE
  2
LTYPE
  5
5
330
0
100
AcDbSymbolTable
 70
     3
  0
LTYPE
  5
14
330
5
100
AcDbSymbolTableRecord
100
AcDbLinetypeTableRecord
  2
ByBlock
 70
     0
  3

 72
    65
 73
     0
 40
0.0
  0
LTYPE
  5
15
330
5
100
AcDbSymbolTableRecord
100
AcDbLinetypeTableRecord
  2
ByLayer
 70
     0
  3

 72
    65
 73
     0
 40
0.0
  0
LTYPE
  5
16
330
5
100
AcDbSymbolTableRecord
100
AcDbLinetypeTableRecord
  2
Continuous
 70
     0
  3
Solid line
 72
    65
 73
     0
 40
0.0
  0
LTYPE
  5
82
330
5
100
AcDbSymbolTableRecord
100
AcDbLinetypeTableRecord
  2
CENTER2
 70
     0
  3
Center (.5x) ___ _ ___ _ ___ _ ___ _ ___ _ ___
 72
    65
 73
     4
 40
28.575
 49
19.05
 74
     0
 49
-3.174999999999999
 74
     0
 49
3.174999999999999
 74
     0
 49
-3.174999999999999
 74
     0
  0
LTYPE
  5
E2B
330
5
100
AcDbSymbolTableRecord
100
AcDbLinetypeTableRecord
  2
CENTER
 70
     0
  3
Center ____ _ ____ _ ____ _ ____ _ ____ _ ____
 72
    65
 73
     4
 40
50.8
 49
31.75
 74
     0
 49
-6.349999999999999
 74
     0
 49
6.349999999999999
 74
     0
 49
-6.349999999999999
 74
     0
  0
ENDTAB
  0
TABLE
  2
LAYER
  5
2
102
{ACAD_XDICTIONARY
360
E5F
102
}
330
0
100
AcDbSymbolTable
 70
    10
  0
LAYER
  5
10
102
{ACAD_XDICTIONARY
360
E3B
102
}
330
2
100
AcDbSymbolTableRecord
100
AcDbLayerTableRecord
  2
0
 70
     0
 62
     7
  6
Continuous
370
    -3
390
F
347
DE8
  0
LAYER
  5
83
102
{ACAD_XDICTIONARY
360
E3D
102
}
330
2
100
AcDbSymbolTableRecord
100
AcDbLayerTableRecord
  2
中心
 70
     0
 62
     1
  6
CENTER2
370
    18
390
F
347
DE8
  0
LAYER
  5
84
102
{ACAD_XDICTIONARY
360
E3F
102
}
330
2
100
AcDbSymbolTableRecord
100
AcDbLayerTableRecord
  2
実線
 70
     0
 62
     7
  6
Continuous
370
    35
390
F
347
DE8
  0
LAYER
  5
86
330
2
100
AcDbSymbolTableRecord
100
AcDbLayerTableRecord
  2
Defpoints
 70
     0
 62
     7
  6
Continuous
290
     0
370
    -3
390
F
347
DE8
  0
LAYER
  5
88
102
{ACAD_XDICTIONARY
360
E45
102
}
330
2
100
AcDbSymbolTableRecord
100
AcDbLayerTableRecord
  2
文字
 70
     0
 62
     6
  6
Continuous
370
    18
390
F
347
DE8
  0
LAYER
  5
89
102
{ACAD_XDICTIONARY
360
E47
102
}
330
2
100
AcDbSymbolTableRecord
100
AcDbLayerTableRecord
  2
グラデーション
 70
     0
 62
     2
  6
Continuous
370
    18
390
F
347
DE8
  0
LAYER
  5
8A
102
{ACAD_XDICTIONARY
360
E49
102
}
330
2
100
AcDbSymbolTableRecord
100
AcDbLayerTableRecord
  2
細線
 70
     0
 62
     5
  6
Continuous
370
    15
390
F
347
DE8
  0
LAYER
  5
8B
102
{ACAD_XDICTIONARY
360
E4B
102
}
330
2
100
AcDbSymbolTableRecord
100
AcDbLayerTableRecord
  2
ハッチング
 70
     0
 62
     1
  6
Continuous
370
    13
390
F
347
DE8
  0
ENDTAB
  0
TABLE
  2
STYLE
  5
3
330
0
100
AcDbSymbolTable
 70
     5
  0
STYLE
  5
11
330
3
100
AcDbSymbolTableRecord
100
AcDbTextStyleTableRecord
  2
Standard
 70
     0
 40
0.0
 41
1.0
 50
0.0
 71
     0
 42
2.5
  3
txt
  4

  0
STYLE
  5
8C
330
3
100
AcDbSymbolTableRecord
100
AcDbTextStyleTableRecord
  2
寸法
 70
     0
 40
0.0
 41
1.0
 50
0.0
 71
     0
 42
1.25
  3
romans.shx
  4
bigfont.shx
  0
STYLE
  5
8D
330
3
100
AcDbSymbolTableRecord
100
AcDbTextStyleTableRecord
  2
文字
 70
     0
 40
0.0
 41
1.0
 50
0.0
 71
     0
 42
9.0
  3
romans.shx
  4
bigfont.shx
  0
STYLE
  5
733
330
3
100
AcDbSymbolTableRecord
100
AcDbTextStyleTableRecord
  2
表題
 70
     0
 40
0.0
 41
1.0
 50
0.0
 71
     0
 42
2.5
  3
simplex.shx
  4
bigfont.shx
  0
STYLE
  5
E2A
330
3
100
AcDbSymbolTableRecord
100
AcDbTextStyleTableRecord
  2

 70
     1
 40
0.0
 41
1.0
 50
0.0
 71
     0
 42
2.5
  3
ltypeshp.shx
  4

  0
ENDTAB
  0
TABLE
  2
VIEW
  5
6
330
0
100
AcDbSymbolTable
 70
     0
  0
ENDTAB
  0
TABLE
  2
UCS
  5
7
330
0
100
AcDbSymbolTable
 70
     0
  0
ENDTAB
  0
TABLE
  2
APPID
  5
9
330
0
100
AcDbSymbolTable
 70
     4
  0
APPID
  5
12
330
9
100
AcDbSymbolTableRecord
100
AcDbRegAppTableRecord
  2
ACAD
 70
     0
  0
APPID
  5
E2C
330
9
100
AcDbSymbolTableRecord
100
AcDbRegAppTableRecord
  2
ACAD_NAV_VCDISPLAY
 70
     0
  0
APPID
  5
E33
330
9
100
AcDbSymbolTableRecord
100
AcDbRegAppTableRecord
  2
ACAD_EXEMPT_FROM_CAD_STANDARDS
 70
     0
  0
APPID
  5
EB7
330
9
100
AcDbSymbolTableRecord
100
AcDbRegAppTableRecord
  2
ACAD_MLEADERVER
 70
     0
  0
ENDTAB
  0
TABLE
  2
DIMSTYLE
  5
A
330
0
100
AcDbSymbolTable
 70
     2
100
AcDbDimStyleTable
 71
     1
340
27
  0
DIMSTYLE
105
27
330
A
100
AcDbSymbolTableRecord
100
AcDbDimStyleTableRecord
  2
ISO-25
 70
     0
 41
2.5
 42
0.625
 43
3.75
 44
1.25
 73
     0
 74
     0
 77
     1
 78
     8
140
2.5
141
2.5
143
0.03937007874016
147
1.0
171
     3
172
     1
271
     3
272
     3
274
     3
283
     0
284
     8
340
8C
  0
DIMSTYLE
105
734
330
A
100
AcDbSymbolTableRecord
100
AcDbDimStyleTableRecord
  2
寸法１
 70
     0
 41
1.25
 42
0.5
 43
3.75
 44
1.25
 73
     0
 74
     0
 77
     1
 78
     8
140
1.25
141
2.5
143
0.03937007874016
147
0.625
171
     3
172
     1
271
     2
272
     2
274
     3
283
     0
284
     8
340
8C
  0
ENDTAB
  0
TABLE
  2
BLOCK_RECORD
  5
1
330
0
100
AcDbSymbolTable
 70
     6
  0
BLOCK_RECORD
  5
1F
330
1
100
AcDbSymbolTableRecord
100
AcDbBlockTableRecord
  2
*Model_Space
340
22
 70
     0
280
     1
281
     0
  0
BLOCK_RECORD
  5
1B
330
1
100
AcDbSymbolTableRecord
100
AcDbBlockTableRecord
  2
*Paper_Space
340
1E
 70
     0
280
     1
281
     0
  0
BLOCK_RECORD
  5
23
330
1
100
AcDbSymbolTableRecord
100
AcDbBlockTableRecord
  2
*Paper_Space0
340
26
 70
     0
280
     1
281
     0
  0
ENDTAB
  0
ENDSEC
  0
SECTION
  2
BLOCKS
  0
BLOCK
  5
20
330
1F
100
AcDbEntity
  8
0
100
AcDbBlockBegin
  2
*Model_Space
 70
     0
 10
0.0
 20
0.0
 30
0.0
  3
*Model_Space
  1

  0
ENDBLK
  5
21
330
1F
100
AcDbEntity
  8
0
100
AcDbBlockEnd
  0
BLOCK
  5
1C
330
1B
100
AcDbEntity
 67
     1
  8
0
100
AcDbBlockBegin
  2
*Paper_Space
 70
     0
 10
0.0
 20
0.0
 30
0.0
  3
*Paper_Space
  1

  0
ENDBLK
  5
1D
330
1B
100
AcDbEntity
 67
     1
  8
0
100
AcDbBlockEnd
  0
BLOCK
  5
24
330
23
100
AcDbEntity
 67
     1
  8
0
100
AcDbBlockBegin
  2
*Paper_Space0
 70
     0
 10
0.0
 20
0.0
 30
0.0
  3
*Paper_Space0
  1

  0
ENDBLK
  5
25
330
23
100
AcDbEntity
 67
     1
  8
0
100
AcDbBlockEnd
  0
ENDSEC
  0
SECTION
  2
ENTITIES
  0
LINE
  5
9AD
330
1F
100
AcDbEntity
  8
実線
100
AcDbLine
 10
121.3617859617186
 20
181.5390882381708
 30
0.0
 11
111.3617859617186
 21
181.5390882381707
 31
0.0
  0
LINE
  5
9AE
330
1F
100
AcDbEntity
  8
実線
100
AcDbLine
 10
121.3617859617186
 20
210.9390882381708
 30
0.0
 11
111.3617859617186
 21
210.9390882381708
 31
0.0
  0
LINE
  5
9AF
330
1F
100
AcDbEntity
  8
中心
 48
0.1
100
AcDbLine
 10
74.61532260008967
 20
196.2390882381708
 30
0.0
 11
139.3817859617186
 21
196.2390882381708
 31
0.0
  0
TEXT
  5
9B2
330
1F
100
AcDbEntity
  8
文字
100
AcDbText
 10
80.51785851692365
 20
181.7057549048374
 30
0.0
 40
1.75
  1
TV   LENS   100mm    1:3.5
 50
90.0
 41
0.8
  7
寸法
 72
     4
 11
79.64285851692365
 21
196.2390882381708
 31
0.0
100
AcDbText
  0
LINE
  5
9B3
330
1F
100
AcDbEntity
  8
グラデーション
100
AcDbLine
 10
87.36178596171857
 20
180.2390882381708
 30
0.0
 11
87.36178596171862
 21
212.2390882381708
 31
0.0
  0
LINE
  5
9B4
330
1F
100
AcDbEntity
  8
グラデーション
100
AcDbLine
 10
90.36178596171856
 20
180.2390882381708
 30
0.0
 11
90.36178596171863
 21
212.2390882381708
 31
0.0
  0
LINE
  5
9B5
330
1F
100
AcDbEntity
  8
グラデーション
100
AcDbLine
 10
91.86178596171856
 20
180.2390882381708
 30
0.0
 11
91.86178596171862
 21
212.2390882381708
 31
0.0
  0
LINE
  5
9B6
330
1F
100
AcDbEntity
  8
グラデーション
100
AcDbLine
 10
93.36178596171857
 20
180.2390882381708
 30
0.0
 11
93.36178596171862
 21
212.2390882381708
 31
0.0
  0
LINE
  5
9B7
330
1F
100
AcDbEntity
  8
グラデーション
100
AcDbLine
 10
93.3617859617186
 20
204.6620028442085
 30
0.0
 11
94.86178596171859
 21
205.8812424202389
 31
0.0
  0
LINE
  5
9B8
330
1F
100
AcDbEntity
  8
グラデーション
100
AcDbLine
 10
93.3617859617186
 20
205.8812424202389
 30
0.0
 11
94.86178596171859
 21
204.6620028442085
 31
0.0
  0
LINE
  5
9B9
330
1F
100
AcDbEntity
  8
グラデーション
100
AcDbLine
 10
91.8617859617186
 20
204.6620028442085
 30
0.0
 11
93.3617859617186
 21
205.8812424202389
 31
0.0
  0
LINE
  5
9BA
330
1F
100
AcDbEntity
  8
グラデーション
100
AcDbLine
 10
91.8617859617186
 20
205.8812424202389
 30
0.0
 11
93.3617859617186
 21
204.6620028442085
 31
0.0
  0
LINE
  5
9BB
330
1F
100
AcDbEntity
  8
グラデーション
100
AcDbLine
 10
90.36178596171859
 20
204.6620028442085
 30
0.0
 11
91.86178596171858
 21
205.8812424202389
 31
0.0
  0
LINE
  5
9BC
330
1F
100
AcDbEntity
  8
グラデーション
100
AcDbLine
 10
90.36178596171859
 20
205.8812424202389
 30
0.0
 11
91.86178596171858
 21
204.6620028442085
 31
0.0
  0
LINE
  5
9BD
330
1F
100
AcDbEntity
  8
グラデーション
100
AcDbLine
 10
88.86178596171859
 20
204.6620028442085
 30
0.0
 11
90.36178596171859
 21
205.8812424202389
 31
0.0
  0
LINE
  5
9BE
330
1F
100
AcDbEntity
  8
グラデーション
100
AcDbLine
 10
88.86178596171859
 20
205.8812424202389
 30
0.0
 11
90.36178596171859
 21
204.6620028442085
 31
0.0
  0
LINE
  5
9BF
330
1F
100
AcDbEntity
  8
グラデーション
100
AcDbLine
 10
87.36178596171859
 20
204.6620028442085
 30
0.0
 11
88.86178596171857
 21
205.8812424202389
 31
0.0
  0
LINE
  5
9C0
330
1F
100
AcDbEntity
  8
グラデーション
100
AcDbLine
 10
87.36178596171859
 20
205.8812424202389
 30
0.0
 11
88.86178596171857
 21
204.6620028442085
 31
0.0
  0
LINE
  5
9C1
330
1F
100
AcDbEntity
  8
グラデーション
100
AcDbLine
 10
85.8617859617186
 20
205.8812424202389
 30
0.0
 11
87.36178596171859
 21
204.6620028442085
 31
0.0
  0
LINE
  5
9C2
330
1F
100
AcDbEntity
  8
グラデーション
100
AcDbLine
 10
85.8617859617186
 20
204.6620028442085
 30
0.0
 11
87.36178596171859
 21
205.8812424202389
 31
0.0
  0
LINE
  5
9C3
330
1F
100
AcDbEntity
  8
グラデーション
100
AcDbLine
 10
93.3617859617186
 20
212.2390882381708
 30
0.0
 11
93.3617859617186
 21
180.2390882381708
 31
0.0
  0
LINE
  5
9C4
330
1F
100
AcDbEntity
  8
グラデーション
100
AcDbLine
 10
91.8617859617186
 20
212.2390882381708
 30
0.0
 11
91.8617859617186
 21
180.2390882381708
 31
0.0
  0
LINE
  5
9C5
330
1F
100
AcDbEntity
  8
グラデーション
100
AcDbLine
 10
90.36178596171859
 20
212.2390882381708
 30
0.0
 11
90.36178596171859
 21
180.2390882381708
 31
0.0
  0
LINE
  5
9C6
330
1F
100
AcDbEntity
  8
グラデーション
100
AcDbLine
 10
88.86178596171859
 20
212.2390882381708
 30
0.0
 11
88.86178596171859
 21
180.2390882381708
 31
0.0
  0
LINE
  5
9C7
330
1F
100
AcDbEntity
  8
グラデーション
100
AcDbLine
 10
87.36178596171859
 20
212.2390882381708
 30
0.0
 11
87.36178596171859
 21
180.2390882381708
 31
0.0
  0
LINE
  5
9C8
330
1F
100
AcDbEntity
  8
グラデーション
100
AcDbLine
 10
94.8617859617186
 20
212.2390882381708
 30
0.0
 11
94.86178596171859
 21
180.2390882381708
 31
0.0
  0
LINE
  5
9C9
330
1F
100
AcDbEntity
  8
グラデーション
100
AcDbLine
 10
85.8617859617186
 20
212.2390882381708
 30
0.0
 11
85.8617859617186
 21
180.2390882381708
 31
0.0
  0
LINE
  5
9CA
330
1F
100
AcDbEntity
  8
細線
100
AcDbLine
 10
77.9617859617186
 20
212.2390882381708
 30
0.0
 11
77.96178596171859
 21
180.2390882381708
 31
0.0
  0
LINE
  5
9CB
330
1F
100
AcDbEntity
  8
細線
100
AcDbLine
 10
85.06178596171858
 20
212.2390882381708
 30
0.0
 11
85.0617859617186
 21
180.2390882381708
 31
0.0
  0
LINE
  5
9CC
330
1F
100
AcDbEntity
  8
細線
100
AcDbLine
 10
96.06178596171861
 20
211.6390882381708
 30
0.0
 11
96.06178596171858
 21
180.8390882381708
 31
0.0
  0
LINE
  5
9CD
330
1F
100
AcDbEntity
  8
細線
100
AcDbLine
 10
111.3617859617186
 20
210.9390882381708
 30
0.0
 11
111.3617859617186
 21
181.5390882381707
 31
0.0
  0
LINE
  5
9CE
330
1F
100
AcDbEntity
  8
細線
100
AcDbLine
 10
95.66178596171861
 20
212.2390882381708
 30
0.0
 11
95.66178596171857
 21
180.2390882381708
 31
0.0
  0
LINE
  5
9CF
330
1F
100
AcDbEntity
  8
実線
100
AcDbLine
 10
77.66178596171861
 20
211.9390882381708
 30
0.0
 11
77.66178596171861
 21
180.5390882381708
 31
0.0
  0
LINE
  5
9D0
330
1F
100
AcDbEntity
  8
細線
100
AcDbLine
 10
81.6617859617186
 20
212.2390882381708
 30
0.0
 11
81.66178596171858
 21
180.2390882381708
 31
0.0
  0
LINE
  5
9D1
330
1F
100
AcDbEntity
  8
細線
100
AcDbLine
 10
82.6617859617186
 20
211.2390882381708
 30
0.0
 11
82.6617859617186
 21
181.2390882381708
 31
0.0
  0
LINE
  5
9D2
330
1F
100
AcDbEntity
  8
実線
100
AcDbLine
 10
84.66178596171859
 20
211.8390882381708
 30
0.0
 11
84.66178596171861
 21
180.6390882381707
 31
0.0
  0
LINE
  5
9D3
330
1F
100
AcDbEntity
  8
細線
100
AcDbLine
 10
108.3617859617186
 20
211.2390882381708
 30
0.0
 11
108.3617859617186
 21
181.2390882381708
 31
0.0
  0
LINE
  5
9D4
330
1F
100
AcDbEntity
  8
細線
100
AcDbLine
 10
110.3617859617186
 20
211.2390882381708
 30
0.0
 11
110.3617859617186
 21
181.2390882381708
 31
0.0
  0
LINE
  5
9D5
330
1F
100
AcDbEntity
  8
実線
100
AcDbLine
 10
110.8617859617186
 20
210.7390882381708
 30
0.0
 11
110.8617859617186
 21
181.7390882381708
 31
0.0
  0
LINE
  5
9D6
330
1F
100
AcDbEntity
  8
実線
100
AcDbLine
 10
107.8617859617186
 20
210.7390882381708
 30
0.0
 11
107.8617859617186
 21
181.7390882381707
 31
0.0
  0
LINE
  5
9D7
330
1F
100
AcDbEntity
  8
実線
100
AcDbLine
 10
103.8617859617186
 20
210.7390882381708
 30
0.0
 11
103.8617859617186
 21
181.7390882381707
 31
0.0
  0
LINE
  5
9D8
330
1F
100
AcDbEntity
  8
実線
100
AcDbLine
 10
99.46178596171861
 20
211.6390882381708
 30
0.0
 11
99.4617859617186
 21
180.8390882381708
 31
0.0
  0
LINE
  5
9D9
330
1F
100
AcDbEntity
  8
実線
100
AcDbLine
 10
84.66178596171861
 20
180.6390882381707
 30
0.0
 11
85.0617859617186
 21
180.2390882381708
 31
0.0
  0
LINE
  5
9DA
330
1F
100
AcDbEntity
  8
実線
 48
0.1
100
AcDbLine
 10
77.96178596171859
 20
180.2390882381708
 30
0.0
 11
81.66178596171858
 21
180.2390882381708
 31
0.0
  0
LINE
  5
9DB
330
1F
100
AcDbEntity
  8
実線
 48
0.1
100
AcDbLine
 10
77.66178596171861
 20
180.5390882381708
 30
0.0
 11
77.96178596171859
 21
180.2390882381708
 31
0.0
  0
LINE
  5
9DC
330
1F
100
AcDbEntity
  8
実線
100
AcDbLine
 10
81.66178596171858
 20
180.2390882381708
 30
0.0
 11
82.6617859617186
 21
181.2390882381708
 31
0.0
  0
LINE
  5
9DD
330
1F
100
AcDbEntity
  8
実線
 48
0.1
100
AcDbLine
 10
82.6617859617186
 20
181.2390882381708
 30
0.0
 11
84.66178596171859
 21
181.2390882381708
 31
0.0
  0
LINE
  5
9DE
330
1F
100
AcDbEntity
  8
グラデーション
100
AcDbLine
 10
91.86178596171856
 20
181.3195325677011
 30
0.0
 11
93.36178596171857
 21
181.9164755764898
 31
0.0
  0
LINE
  5
9DF
330
1F
100
AcDbEntity
  8
グラデーション
100
AcDbLine
 10
91.86178596171856
 20
181.9164755764898
 30
0.0
 11
93.36178596171857
 21
181.3195325677011
 31
0.0
  0
LINE
  5
9E0
330
1F
100
AcDbEntity
  8
グラデーション
100
AcDbLine
 10
93.36178596171857
 20
181.319532567701
 30
0.0
 11
94.86178596171855
 21
181.9164755764898
 31
0.0
  0
LINE
  5
9E1
330
1F
100
AcDbEntity
  8
グラデーション
100
AcDbLine
 10
93.36178596171857
 20
181.9164755764898
 30
0.0
 11
94.86178596171855
 21
181.319532567701
 31
0.0
  0
LINE
  5
9E2
330
1F
100
AcDbEntity
  8
グラデーション
100
AcDbLine
 10
87.36178596171857
 20
181.319532567701
 30
0.0
 11
88.86178596171856
 21
181.9164755764898
 31
0.0
  0
LINE
  5
9E3
330
1F
100
AcDbEntity
  8
グラデーション
100
AcDbLine
 10
87.36178596171857
 20
181.9164755764898
 30
0.0
 11
88.86178596171856
 21
181.319532567701
 31
0.0
  0
LINE
  5
9E4
330
1F
100
AcDbEntity
  8
グラデーション
100
AcDbLine
 10
88.86178596171857
 20
181.3195325677011
 30
0.0
 11
90.36178596171856
 21
181.9164755764898
 31
0.0
  0
LINE
  5
9E5
330
1F
100
AcDbEntity
  8
グラデーション
100
AcDbLine
 10
88.86178596171857
 20
181.9164755764898
 30
0.0
 11
90.36178596171856
 21
181.3195325677011
 31
0.0
  0
LINE
  5
9E6
330
1F
100
AcDbEntity
  8
グラデーション
100
AcDbLine
 10
85.86178596171857
 20
181.9164755764898
 30
0.0
 11
87.36178596171857
 21
181.3195325677011
 31
0.0
  0
LINE
  5
9E7
330
1F
100
AcDbEntity
  8
グラデーション
100
AcDbLine
 10
85.86178596171857
 20
181.3195325677011
 30
0.0
 11
87.36178596171857
 21
181.9164755764898
 31
0.0
  0
LINE
  5
9E8
330
1F
100
AcDbEntity
  8
グラデーション
100
AcDbLine
 10
90.36178596171856
 20
181.319532567701
 30
0.0
 11
91.86178596171854
 21
181.9164755764898
 31
0.0
  0
LINE
  5
9E9
330
1F
100
AcDbEntity
  8
グラデーション
100
AcDbLine
 10
90.36178596171856
 20
181.9164755764898
 30
0.0
 11
91.86178596171854
 21
181.319532567701
 31
0.0
  0
LINE
  5
9EA
330
1F
100
AcDbEntity
  8
実線
100
AcDbLine
 10
111.3617859617186
 20
181.5390882381707
 30
0.0
 11
110.8617859617186
 21
182.0390882381707
 31
0.0
  0
LINE
  5
9EB
330
1F
100
AcDbEntity
  8
実線
100
AcDbLine
 10
99.4617859617186
 20
181.7390882381707
 30
0.0
 11
103.8617859617186
 21
181.7390882381707
 31
0.0
  0
LINE
  5
9EC
330
1F
100
AcDbEntity
  8
グラデーション
100
AcDbLine
 10
91.86178596171856
 20
180.3073414174502
 30
0.0
 11
93.36178596171857
 21
180.2390882381708
 31
0.0
  0
LINE
  5
9ED
330
1F
100
AcDbEntity
  8
グラデーション
100
AcDbLine
 10
91.86178596171856
 20
180.2390882381708
 30
0.0
 11
93.36178596171857
 21
180.3073414174502
 31
0.0
  0
LINE
  5
9EE
330
1F
100
AcDbEntity
  8
グラデーション
100
AcDbLine
 10
93.36178596171857
 20
180.3073414174502
 30
0.0
 11
91.86178596171856
 21
180.5115186432283
 31
0.0
  0
LWPOLYLINE
  5
9EF
330
1F
100
AcDbEntity
  8
グラデーション
100
AcDbPolyline
 90
        2
 70
     0
 43
0.0
 10
93.36178596171857
 20
180.5115186432283
 10
91.86178596171856
 20
180.3073414174502
  0
LINE
  5
9F0
330
1F
100
AcDbEntity
  8
グラデーション
100
AcDbLine
 10
91.86178596171856
 20
180.8498779474057
 30
0.0
 11
93.36178596171857
 21
180.5115186432283
 31
0.0
  0
LINE
  5
9F1
330
1F
100
AcDbEntity
  8
グラデーション
100
AcDbLine
 10
91.86178596171856
 20
180.5115186432283
 30
0.0
 11
93.36178596171857
 21
180.8498779474057
 31
0.0
  0
LINE
  5
9F2
330
1F
100
AcDbEntity
  8
グラデーション
100
AcDbLine
 10
93.36178596171857
 20
180.8498779474057
 30
0.0
 11
91.86178596171856
 21
181.3195325677011
 31
0.0
  0
LINE
  5
9F3
330
1F
100
AcDbEntity
  8
グラデーション
100
AcDbLine
 10
93.36178596171857
 20
181.3195325677011
 30
0.0
 11
91.86178596171856
 21
180.8498779474057
 31
0.0
  0
LINE
  5
9F4
330
1F
100
AcDbEntity
  8
グラデーション
100
AcDbLine
 10
85.86178596171857
 20
180.3073414174502
 30
0.0
 11
94.86178596171857
 21
180.3073414174502
 31
0.0
  0
LINE
  5
9F5
330
1F
100
AcDbEntity
  8
グラデーション
100
AcDbLine
 10
85.86178596171857
 20
180.5115186432283
 30
0.0
 11
94.86178596171857
 21
180.5115186432283
 31
0.0
  0
LINE
  5
9F6
330
1F
100
AcDbEntity
  8
実線
100
AcDbLine
 10
85.0617859617186
 20
180.2390882381708
 30
0.0
 11
95.66178596171859
 21
180.2390882381708
 31
0.0
  0
LINE
  5
9F7
330
1F
100
AcDbEntity
  8
グラデーション
100
AcDbLine
 10
87.36178596171857
 20
180.3073414174502
 30
0.0
 11
88.86178596171856
 21
180.2390882381708
 31
0.0
  0
LINE
  5
9F8
330
1F
100
AcDbEntity
  8
グラデーション
100
AcDbLine
 10
87.36178596171855
 20
180.2390882381708
 30
0.0
 11
88.86178596171856
 21
180.3073414174502
 31
0.0
  0
LINE
  5
9F9
330
1F
100
AcDbEntity
  8
グラデーション
100
AcDbLine
 10
88.86178596171856
 20
180.3073414174502
 30
0.0
 11
87.36178596171857
 21
180.5115186432283
 31
0.0
  0
LWPOLYLINE
  5
9FA
330
1F
100
AcDbEntity
  8
グラデーション
100
AcDbPolyline
 90
        2
 70
     0
 43
0.0
 10
88.86178596171856
 20
180.5115186432283
 10
87.36178596171857
 20
180.3073414174502
  0
LINE
  5
9FB
330
1F
100
AcDbEntity
  8
グラデーション
100
AcDbLine
 10
87.36178596171857
 20
180.8498779474057
 30
0.0
 11
88.86178596171856
 21
180.5115186432283
 31
0.0
  0
LINE
  5
9FC
330
1F
100
AcDbEntity
  8
グラデーション
100
AcDbLine
 10
87.36178596171857
 20
180.5115186432283
 30
0.0
 11
88.86178596171856
 21
180.8498779474057
 31
0.0
  0
LINE
  5
9FD
330
1F
100
AcDbEntity
  8
グラデーション
100
AcDbLine
 10
88.86178596171856
 20
180.8498779474057
 30
0.0
 11
87.36178596171857
 21
181.319532567701
 31
0.0
  0
LINE
  5
9FE
330
1F
100
AcDbEntity
  8
グラデーション
100
AcDbLine
 10
88.86178596171856
 20
181.319532567701
 30
0.0
 11
87.36178596171857
 21
180.8498779474057
 31
0.0
  0
LINE
  5
9FF
330
1F
100
AcDbEntity
  8
グラデーション
100
AcDbLine
 10
85.86178596171857
 20
180.3073414174502
 30
0.0
 11
87.36178596171857
 21
180.2390882381708
 31
0.0
  0
LINE
  5
A00
330
1F
100
AcDbEntity
  8
グラデーション
100
AcDbLine
 10
85.86178596171857
 20
180.2390882381708
 30
0.0
 11
87.36178596171857
 21
180.3073414174502
 31
0.0
  0
LINE
  5
A01
330
1F
100
AcDbEntity
  8
グラデーション
100
AcDbLine
 10
87.36178596171857
 20
180.3073414174502
 30
0.0
 11
85.86178596171857
 21
180.5115186432283
 31
0.0
  0
LWPOLYLINE
  5
A02
330
1F
100
AcDbEntity
  8
グラデーション
100
AcDbPolyline
 90
        2
 70
     0
 43
0.0
 10
87.36178596171857
 20
180.5115186432283
 10
85.86178596171857
 20
180.3073414174502
  0
LINE
  5
A03
330
1F
100
AcDbEntity
  8
グラデーション
100
AcDbLine
 10
85.86178596171857
 20
180.8498779474057
 30
0.0
 11
87.36178596171857
 21
180.5115186432283
 31
0.0
  0
LINE
  5
A04
330
1F
100
AcDbEntity
  8
グラデーション
100
AcDbLine
 10
85.86178596171857
 20
180.5115186432283
 30
0.0
 11
87.36178596171857
 21
180.8498779474057
 31
0.0
  0
LINE
  5
A05
330
1F
100
AcDbEntity
  8
グラデーション
100
AcDbLine
 10
87.36178596171857
 20
180.8498779474057
 30
0.0
 11
85.86178596171857
 21
181.3195325677011
 31
0.0
  0
LINE
  5
A06
330
1F
100
AcDbEntity
  8
グラデーション
100
AcDbLine
 10
87.36178596171857
 20
181.3195325677011
 30
0.0
 11
85.86178596171857
 21
180.8498779474057
 31
0.0
  0
LINE
  5
A07
330
1F
100
AcDbEntity
  8
グラデーション
100
AcDbLine
 10
88.86178596171857
 20
180.3073414174502
 30
0.0
 11
90.36178596171856
 21
180.2390882381708
 31
0.0
  0
LINE
  5
A08
330
1F
100
AcDbEntity
  8
グラデーション
100
AcDbLine
 10
88.86178596171857
 20
180.2390882381708
 30
0.0
 11
90.36178596171856
 21
180.3073414174502
 31
0.0
  0
LINE
  5
A09
330
1F
100
AcDbEntity
  8
グラデーション
100
AcDbLine
 10
90.36178596171856
 20
180.3073414174502
 30
0.0
 11
88.86178596171857
 21
180.5115186432283
 31
0.0
  0
LWPOLYLINE
  5
A0A
330
1F
100
AcDbEntity
  8
グラデーション
100
AcDbPolyline
 90
        2
 70
     0
 43
0.0
 10
90.36178596171856
 20
180.5115186432283
 10
88.86178596171857
 20
180.3073414174502
  0
LINE
  5
A0B
330
1F
100
AcDbEntity
  8
グラデーション
100
AcDbLine
 10
88.86178596171857
 20
180.8498779474057
 30
0.0
 11
90.36178596171856
 21
180.5115186432283
 31
0.0
  0
LINE
  5
A0C
330
1F
100
AcDbEntity
  8
グラデーション
100
AcDbLine
 10
88.86178596171857
 20
180.5115186432283
 30
0.0
 11
90.36178596171856
 21
180.8498779474057
 31
0.0
  0
LINE
  5
A0D
330
1F
100
AcDbEntity
  8
グラデーション
100
AcDbLine
 10
90.36178596171856
 20
180.8498779474057
 30
0.0
 11
88.86178596171857
 21
181.3195325677011
 31
0.0
  0
LINE
  5
A0E
330
1F
100
AcDbEntity
  8
グラデーション
100
AcDbLine
 10
90.36178596171856
 20
181.3195325677011
 30
0.0
 11
88.86178596171857
 21
180.8498779474057
 31
0.0
  0
LINE
  5
A0F
330
1F
100
AcDbEntity
  8
グラデーション
100
AcDbLine
 10
90.36178596171856
 20
180.3073414174502
 30
0.0
 11
91.86178596171854
 21
180.2390882381708
 31
0.0
  0
LINE
  5
A10
330
1F
100
AcDbEntity
  8
グラデーション
100
AcDbLine
 10
90.36178596171856
 20
180.2390882381708
 30
0.0
 11
91.86178596171854
 21
180.3073414174502
 31
0.0
  0
LINE
  5
A11
330
1F
100
AcDbEntity
  8
グラデーション
100
AcDbLine
 10
91.86178596171854
 20
180.3073414174502
 30
0.0
 11
90.36178596171856
 21
180.5115186432283
 31
0.0
  0
LWPOLYLINE
  5
A12
330
1F
100
AcDbEntity
  8
グラデーション
100
AcDbPolyline
 90
        2
 70
     0
 43
0.0
 10
91.86178596171854
 20
180.5115186432283
 10
90.36178596171856
 20
180.3073414174502
  0
LINE
  5
A13
330
1F
100
AcDbEntity
  8
グラデーション
100
AcDbLine
 10
90.36178596171856
 20
180.8498779474057
 30
0.0
 11
91.86178596171854
 21
180.5115186432283
 31
0.0
  0
LINE
  5
A14
330
1F
100
AcDbEntity
  8
グラデーション
100
AcDbLine
 10
90.36178596171856
 20
180.5115186432283
 30
0.0
 11
91.86178596171854
 21
180.8498779474057
 31
0.0
  0
LINE
  5
A15
330
1F
100
AcDbEntity
  8
グラデーション
100
AcDbLine
 10
91.86178596171854
 20
180.8498779474057
 30
0.0
 11
90.36178596171856
 21
181.319532567701
 31
0.0
  0
LINE
  5
A16
330
1F
100
AcDbEntity
  8
グラデーション
100
AcDbLine
 10
91.86178596171854
 20
181.319532567701
 30
0.0
 11
90.36178596171856
 21
180.8498779474057
 31
0.0
  0
LINE
  5
A17
330
1F
100
AcDbEntity
  8
実線
100
AcDbLine
 10
96.06178596171858
 20
180.8390882381708
 30
0.0
 11
99.4617859617186
 21
180.8390882381708
 31
0.0
  0
LINE
  5
A18
330
1F
100
AcDbEntity
  8
グラデーション
100
AcDbLine
 10
93.36178596171857
 20
180.3073414174502
 30
0.0
 11
94.86178596171855
 21
180.2390882381708
 31
0.0
  0
LINE
  5
A19
330
1F
100
AcDbEntity
  8
グラデーション
100
AcDbLine
 10
93.36178596171855
 20
180.2390882381708
 30
0.0
 11
94.86178596171855
 21
180.3073414174502
 31
0.0
  0
LINE
  5
A1A
330
1F
100
AcDbEntity
  8
グラデーション
100
AcDbLine
 10
94.86178596171855
 20
180.3073414174502
 30
0.0
 11
93.36178596171857
 21
180.5115186432283
 31
0.0
  0
LWPOLYLINE
  5
A1B
330
1F
100
AcDbEntity
  8
グラデーション
100
AcDbPolyline
 90
        2
 70
     0
 43
0.0
 10
94.86178596171855
 20
180.5115186432283
 10
93.36178596171857
 20
180.3073414174502
  0
LINE
  5
A1C
330
1F
100
AcDbEntity
  8
グラデーション
100
AcDbLine
 10
93.36178596171857
 20
180.8498779474057
 30
0.0
 11
94.86178596171855
 21
180.5115186432283
 31
0.0
  0
LINE
  5
A1D
330
1F
100
AcDbEntity
  8
グラデーション
100
AcDbLine
 10
93.36178596171857
 20
180.5115186432283
 30
0.0
 11
94.86178596171855
 21
180.8498779474057
 31
0.0
  0
LINE
  5
A1E
330
1F
100
AcDbEntity
  8
グラデーション
100
AcDbLine
 10
94.86178596171855
 20
180.8498779474057
 30
0.0
 11
93.36178596171857
 21
181.319532567701
 31
0.0
  0
LINE
  5
A1F
330
1F
100
AcDbEntity
  8
グラデーション
100
AcDbLine
 10
94.86178596171855
 20
181.319532567701
 30
0.0
 11
93.36178596171857
 21
180.8498779474057
 31
0.0
  0
LINE
  5
A20
330
1F
100
AcDbEntity
  8
実線
100
AcDbLine
 10
96.06178596171858
 20
180.8390882381708
 30
0.0
 11
95.66178596171857
 21
180.2390882381708
 31
0.0
  0
LINE
  5
A21
330
1F
100
AcDbEntity
  8
グラデーション
100
AcDbLine
 10
108.3617859617186
 20
181.4944917429122
 30
0.0
 11
110.3617859617186
 21
181.4944917429122
 31
0.0
  0
LINE
  5
A22
330
1F
100
AcDbEntity
  8
グラデーション
100
AcDbLine
 10
108.3617859617186
 20
181.8117035905784
 30
0.0
 11
110.3617859617186
 21
181.8117035905784
 31
0.0
  0
LINE
  5
A23
330
1F
100
AcDbEntity
  8
グラデーション
100
AcDbLine
 10
108.3617859617186
 20
181.3030755937452
 30
0.0
 11
110.3617859617186
 21
181.3030755937452
 31
0.0
  0
LINE
  5
A24
330
1F
100
AcDbEntity
  8
実線
100
AcDbLine
 10
108.3617859617186
 20
181.2390882381708
 30
0.0
 11
110.3617859617186
 21
181.2390882381708
 31
0.0
  0
LINE
  5
A25
330
1F
100
AcDbEntity
  8
実線
100
AcDbLine
 10
103.8617859617186
 20
181.7390882381707
 30
0.0
 11
107.8617859617186
 21
181.7390882381707
 31
0.0
  0
LINE
  5
A26
330
1F
100
AcDbEntity
  8
実線
100
AcDbLine
 10
107.8617859617186
 20
181.7390882381707
 30
0.0
 11
108.3617859617186
 21
181.2390882381708
 31
0.0
  0
LINE
  5
A27
330
1F
100
AcDbEntity
  8
実線
100
AcDbLine
 10
110.8617859617186
 20
181.7390882381707
 30
0.0
 11
110.3617859617186
 21
181.2390882381708
 31
0.0
  0
LINE
  5
A28
330
1F
100
AcDbEntity
  8
実線
100
AcDbLine
 10
99.4617859617186
 20
196.2390882381708
 30
0.0
 11
103.8617859617186
 21
196.2390882381708
 31
0.0
  0
TEXT
  5
A29
330
1F
100
AcDbEntity
  8
文字
100
AcDbText
 10
98.6367859617186
 20
184.0498034808414
 30
0.0
 40
1.75
  1
2      5      ∞ m
 50
90.0
 41
0.7
  7
寸法
 72
     4
 11
97.7617859617186
 21
191.5748034808414
 31
0.0
100
AcDbText
  0
LINE
  5
A2A
330
1F
100
AcDbEntity
  8
グラデーション
100
AcDbLine
 10
93.3617859617186
 20
194.762794486758
 30
0.0
 11
91.8617859617186
 21
193.2990959531057
 31
0.0
  0
LINE
  5
A2B
330
1F
100
AcDbEntity
  8
グラデーション
100
AcDbLine
 10
93.3617859617186
 20
193.2990959531057
 30
0.0
 11
91.8617859617186
 21
194.762794486758
 31
0.0
  0
LINE
  5
A2C
330
1F
100
AcDbEntity
  8
グラデーション
100
AcDbLine
 10
94.86178596171857
 20
194.762794486758
 30
0.0
 11
93.36178596171858
 21
193.2990959531057
 31
0.0
  0
LINE
  5
A2D
330
1F
100
AcDbEntity
  8
グラデーション
100
AcDbLine
 10
94.86178596171857
 20
193.2990959531057
 30
0.0
 11
93.36178596171858
 21
194.762794486758
 31
0.0
  0
LINE
  5
A2E
330
1F
100
AcDbEntity
  8
グラデーション
100
AcDbLine
 10
88.86178596171857
 20
194.762794486758
 30
0.0
 11
87.36178596171859
 21
193.2990959531057
 31
0.0
  0
LINE
  5
A2F
330
1F
100
AcDbEntity
  8
グラデーション
100
AcDbLine
 10
88.86178596171857
 20
193.2990959531057
 30
0.0
 11
87.36178596171859
 21
194.762794486758
 31
0.0
  0
LINE
  5
A30
330
1F
100
AcDbEntity
  8
グラデーション
100
AcDbLine
 10
90.36178596171859
 20
194.762794486758
 30
0.0
 11
88.86178596171859
 21
193.2990959531057
 31
0.0
  0
LINE
  5
A31
330
1F
100
AcDbEntity
  8
グラデーション
100
AcDbLine
 10
90.36178596171859
 20
193.2990959531057
 30
0.0
 11
88.86178596171859
 21
194.762794486758
 31
0.0
  0
LINE
  5
A32
330
1F
100
AcDbEntity
  8
グラデーション
100
AcDbLine
 10
87.36178596171859
 20
194.762794486758
 30
0.0
 11
85.8617859617186
 21
193.2990959531057
 31
0.0
  0
LINE
  5
A33
330
1F
100
AcDbEntity
  8
グラデーション
100
AcDbLine
 10
87.36178596171859
 20
193.2990959531057
 30
0.0
 11
85.8617859617186
 21
194.762794486758
 31
0.0
  0
LINE
  5
A34
330
1F
100
AcDbEntity
  8
グラデーション
100
AcDbLine
 10
91.86178596171856
 20
194.762794486758
 30
0.0
 11
90.36178596171858
 21
193.2990959531057
 31
0.0
  0
LINE
  5
A35
330
1F
100
AcDbEntity
  8
グラデーション
100
AcDbLine
 10
91.86178596171856
 20
193.2990959531057
 30
0.0
 11
90.36178596171858
 21
194.762794486758
 31
0.0
  0
LINE
  5
A36
330
1F
100
AcDbEntity
  8
グラデーション
100
AcDbLine
 10
91.86178596171858
 20
184.4149455626402
 30
0.0
 11
93.36178596171857
 21
185.4599579398259
 31
0.0
  0
LINE
  5
A37
330
1F
100
AcDbEntity
  8
グラデーション
100
AcDbLine
 10
91.86178596171858
 20
185.4599579398259
 30
0.0
 11
93.36178596171857
 21
184.4149455626402
 31
0.0
  0
LINE
  5
A38
330
1F
100
AcDbEntity
  8
グラデーション
100
AcDbLine
 10
93.36178596171857
 20
184.4149455626402
 30
0.0
 11
91.86178596171858
 21
183.470812601687
 31
0.0
  0
LINE
  5
A39
330
1F
100
AcDbEntity
  8
グラデーション
100
AcDbLine
 10
93.36178596171857
 20
183.470812601687
 30
0.0
 11
91.86178596171858
 21
184.4149455626402
 31
0.0
  0
LINE
  5
A3A
330
1F
100
AcDbEntity
  8
グラデーション
100
AcDbLine
 10
91.86178596171858
 20
182.6356140664969
 30
0.0
 11
93.36178596171857
 21
183.470812601687
 31
0.0
  0
LINE
  5
A3B
330
1F
100
AcDbEntity
  8
グラデーション
100
AcDbLine
 10
91.86178596171858
 20
183.470812601687
 30
0.0
 11
93.36178596171857
 21
182.6356140664969
 31
0.0
  0
LINE
  5
A3C
330
1F
100
AcDbEntity
  8
グラデーション
100
AcDbLine
 10
93.36178596171857
 20
182.6356140664969
 30
0.0
 11
91.86178596171856
 21
181.9164755764898
 31
0.0
  0
LINE
  5
A3D
330
1F
100
AcDbEntity
  8
グラデーション
100
AcDbLine
 10
93.36178596171857
 20
181.9164755764898
 30
0.0
 11
91.86178596171858
 21
182.6356140664969
 31
0.0
  0
LINE
  5
A3E
330
1F
100
AcDbEntity
  8
グラデーション
100
AcDbLine
 10
93.3617859617186
 20
191.8604803970175
 30
0.0
 11
91.8617859617186
 21
190.4592215791764
 31
0.0
  0
LINE
  5
A3F
330
1F
100
AcDbEntity
  8
グラデーション
100
AcDbLine
 10
93.36178596171858
 20
190.4592215791763
 30
0.0
 11
91.8617859617186
 21
191.8604803970175
 31
0.0
  0
LINE
  5
A40
330
1F
100
AcDbEntity
  8
グラデーション
100
AcDbLine
 10
91.8617859617186
 20
189.1072745457462
 30
0.0
 11
93.36178596171858
 21
190.4592215791763
 31
0.0
  0
LINE
  5
A41
330
1F
100
AcDbEntity
  8
グラデーション
100
AcDbLine
 10
91.8617859617186
 20
190.4592215791764
 30
0.0
 11
93.36178596171858
 21
189.1072745457462
 31
0.0
  0
LINE
  5
A42
330
1F
100
AcDbEntity
  8
グラデーション
100
AcDbLine
 10
93.36178596171858
 20
189.1072745457462
 30
0.0
 11
91.8617859617186
 21
187.8161736321331
 31
0.0
  0
LINE
  5
A43
330
1F
100
AcDbEntity
  8
グラデーション
100
AcDbLine
 10
93.36178596171858
 20
187.8161736321331
 30
0.0
 11
91.8617859617186
 21
189.1072745457462
 31
0.0
  0
LINE
  5
A44
330
1F
100
AcDbEntity
  8
グラデーション
100
AcDbLine
 10
91.86178596171858
 20
186.5969340561027
 30
0.0
 11
93.36178596171858
 21
187.8161736321331
 31
0.0
  0
LINE
  5
A45
330
1F
100
AcDbEntity
  8
グラデーション
100
AcDbLine
 10
91.8617859617186
 20
187.8161736321331
 30
0.0
 11
93.36178596171857
 21
186.5969340561027
 31
0.0
  0
LINE
  5
A46
330
1F
100
AcDbEntity
  8
グラデーション
100
AcDbLine
 10
93.36178596171857
 20
186.5969340561027
 30
0.0
 11
91.86178596171858
 21
185.4599579398259
 31
0.0
  0
LINE
  5
A47
330
1F
100
AcDbEntity
  8
グラデーション
100
AcDbLine
 10
93.36178596171857
 20
185.4599579398259
 30
0.0
 11
91.86178596171858
 21
186.5969340561027
 31
0.0
  0
LINE
  5
A48
330
1F
100
AcDbEntity
  8
グラデーション
100
AcDbLine
 10
85.86178596171858
 20
190.4592215791764
 30
0.0
 11
94.86178596171859
 21
190.4592215791763
 31
0.0
  0
LINE
  5
A49
330
1F
100
AcDbEntity
  8
グラデーション
100
AcDbLine
 10
85.8617859617186
 20
191.8604803970175
 30
0.0
 11
94.86178596171859
 21
191.8604803970175
 31
0.0
  0
LINE
  5
A4A
330
1F
100
AcDbEntity
  8
グラデーション
100
AcDbLine
 10
85.86178596171858
 20
189.1072745457462
 30
0.0
 11
94.86178596171859
 21
189.1072745457462
 31
0.0
  0
LINE
  5
A4B
330
1F
100
AcDbEntity
  8
グラデーション
100
AcDbLine
 10
85.86178596171858
 20
187.8161736321331
 30
0.0
 11
94.86178596171859
 21
187.8161736321331
 31
0.0
  0
LINE
  5
A4C
330
1F
100
AcDbEntity
  8
グラデーション
100
AcDbLine
 10
85.86178596171857
 20
186.5969340561027
 30
0.0
 11
94.86178596171859
 21
186.5969340561027
 31
0.0
  0
LINE
  5
A4D
330
1F
100
AcDbEntity
  8
グラデーション
100
AcDbLine
 10
85.86178596171857
 20
185.4599579398259
 30
0.0
 11
94.86178596171859
 21
185.4599579398259
 31
0.0
  0
LINE
  5
A4E
330
1F
100
AcDbEntity
  8
グラデーション
100
AcDbLine
 10
85.86178596171857
 20
184.4149455626402
 30
0.0
 11
94.86178596171859
 21
184.4149455626402
 31
0.0
  0
LINE
  5
A4F
330
1F
100
AcDbEntity
  8
グラデーション
100
AcDbLine
 10
85.86178596171857
 20
183.470812601687
 30
0.0
 11
94.86178596171859
 21
183.4708126016869
 31
0.0
  0
LINE
  5
A50
330
1F
100
AcDbEntity
  8
グラデーション
100
AcDbLine
 10
85.86178596171857
 20
182.6356140664969
 30
0.0
 11
94.86178596171859
 21
182.6356140664969
 31
0.0
  0
LINE
  5
A51
330
1F
100
AcDbEntity
  8
グラデーション
100
AcDbLine
 10
85.86178596171857
 20
181.9164755764898
 30
0.0
 11
94.86178596171857
 21
181.9164755764898
 31
0.0
  0
LINE
  5
A52
330
1F
100
AcDbEntity
  8
グラデーション
100
AcDbLine
 10
85.8617859617186
 20
193.2990959531057
 30
0.0
 11
94.86178596171859
 21
193.2990959531057
 31
0.0
  0
LINE
  5
A53
330
1F
100
AcDbEntity
  8
グラデーション
100
AcDbLine
 10
91.8617859617186
 20
191.8604803970175
 30
0.0
 11
93.3617859617186
 21
193.2990959531057
 31
0.0
  0
LINE
  5
A54
330
1F
100
AcDbEntity
  8
グラデーション
100
AcDbLine
 10
91.8617859617186
 20
193.2990959531057
 30
0.0
 11
93.3617859617186
 21
191.8604803970175
 31
0.0
  0
LINE
  5
A55
330
1F
100
AcDbEntity
  8
グラデーション
100
AcDbLine
 10
87.36178596171857
 20
186.5969340561027
 30
0.0
 11
88.86178596171857
 21
187.8161736321331
 31
0.0
  0
LINE
  5
A56
330
1F
100
AcDbEntity
  8
グラデーション
100
AcDbLine
 10
87.36178596171857
 20
187.8161736321331
 30
0.0
 11
88.86178596171857
 21
186.5969340561027
 31
0.0
  0
LINE
  5
A57
330
1F
100
AcDbEntity
  8
グラデーション
100
AcDbLine
 10
88.86178596171857
 20
186.5969340561027
 30
0.0
 11
90.36178596171858
 21
187.8161736321331
 31
0.0
  0
LINE
  5
A58
330
1F
100
AcDbEntity
  8
グラデーション
100
AcDbLine
 10
88.86178596171859
 20
187.8161736321331
 30
0.0
 11
90.36178596171856
 21
186.5969340561027
 31
0.0
  0
LINE
  5
A59
330
1F
100
AcDbEntity
  8
グラデーション
100
AcDbLine
 10
85.86178596171858
 20
187.8161736321331
 30
0.0
 11
87.36178596171857
 21
186.5969340561027
 31
0.0
  0
LINE
  5
A5A
330
1F
100
AcDbEntity
  8
グラデーション
100
AcDbLine
 10
85.86178596171857
 20
186.5969340561027
 30
0.0
 11
87.36178596171857
 21
187.8161736321331
 31
0.0
  0
LINE
  5
A5B
330
1F
100
AcDbEntity
  8
グラデーション
100
AcDbLine
 10
90.36178596171856
 20
186.5969340561027
 30
0.0
 11
91.86178596171856
 21
187.8161736321331
 31
0.0
  0
LINE
  5
A5C
330
1F
100
AcDbEntity
  8
グラデーション
100
AcDbLine
 10
90.36178596171856
 20
187.8161736321331
 30
0.0
 11
91.86178596171856
 21
186.5969340561027
 31
0.0
  0
LINE
  5
A5D
330
1F
100
AcDbEntity
  8
グラデーション
100
AcDbLine
 10
87.36178596171857
 20
184.4149455626402
 30
0.0
 11
88.86178596171857
 21
185.4599579398259
 31
0.0
  0
LINE
  5
A5E
330
1F
100
AcDbEntity
  8
グラデーション
100
AcDbLine
 10
87.36178596171857
 20
185.4599579398259
 30
0.0
 11
88.86178596171857
 21
184.4149455626402
 31
0.0
  0
LINE
  5
A5F
330
1F
100
AcDbEntity
  8
グラデーション
100
AcDbLine
 10
88.86178596171857
 20
184.4149455626402
 30
0.0
 11
87.36178596171857
 21
183.4708126016869
 31
0.0
  0
LINE
  5
A60
330
1F
100
AcDbEntity
  8
グラデーション
100
AcDbLine
 10
88.86178596171857
 20
183.4708126016869
 30
0.0
 11
87.36178596171857
 21
184.4149455626402
 31
0.0
  0
LINE
  5
A61
330
1F
100
AcDbEntity
  8
グラデーション
100
AcDbLine
 10
87.36178596171857
 20
182.6356140664969
 30
0.0
 11
88.86178596171857
 21
183.4708126016869
 31
0.0
  0
LINE
  5
A62
330
1F
100
AcDbEntity
  8
グラデーション
100
AcDbLine
 10
87.36178596171857
 20
183.4708126016869
 30
0.0
 11
88.86178596171857
 21
182.6356140664969
 31
0.0
  0
LINE
  5
A63
330
1F
100
AcDbEntity
  8
グラデーション
100
AcDbLine
 10
88.86178596171857
 20
182.6356140664969
 30
0.0
 11
87.36178596171857
 21
181.9164755764898
 31
0.0
  0
LINE
  5
A64
330
1F
100
AcDbEntity
  8
グラデーション
100
AcDbLine
 10
88.86178596171856
 20
181.9164755764898
 30
0.0
 11
87.36178596171857
 21
182.6356140664969
 31
0.0
  0
LINE
  5
A65
330
1F
100
AcDbEntity
  8
グラデーション
100
AcDbLine
 10
88.86178596171857
 20
186.5969340561027
 30
0.0
 11
87.36178596171857
 21
185.4599579398259
 31
0.0
  0
LINE
  5
A66
330
1F
100
AcDbEntity
  8
グラデーション
100
AcDbLine
 10
88.86178596171857
 20
185.4599579398259
 30
0.0
 11
87.36178596171857
 21
186.5969340561027
 31
0.0
  0
LINE
  5
A67
330
1F
100
AcDbEntity
  8
グラデーション
100
AcDbLine
 10
85.86178596171857
 20
185.4599579398259
 30
0.0
 11
87.36178596171857
 21
184.4149455626402
 31
0.0
  0
LINE
  5
A68
330
1F
100
AcDbEntity
  8
グラデーション
100
AcDbLine
 10
87.36178596171857
 20
184.4149455626402
 30
0.0
 11
85.86178596171857
 21
183.470812601687
 31
0.0
  0
LINE
  5
A69
330
1F
100
AcDbEntity
  8
グラデーション
100
AcDbLine
 10
85.86178596171857
 20
183.470812601687
 30
0.0
 11
87.36178596171857
 21
182.6356140664969
 31
0.0
  0
LINE
  5
A6A
330
1F
100
AcDbEntity
  8
グラデーション
100
AcDbLine
 10
87.36178596171857
 20
182.6356140664969
 30
0.0
 11
85.86178596171857
 21
181.9164755764898
 31
0.0
  0
LINE
  5
A6B
330
1F
100
AcDbEntity
  8
グラデーション
100
AcDbLine
 10
87.36178596171857
 20
181.9164755764898
 30
0.0
 11
85.86178596171857
 21
182.6356140664969
 31
0.0
  0
LINE
  5
A6C
330
1F
100
AcDbEntity
  8
グラデーション
100
AcDbLine
 10
85.86178596171857
 20
182.6356140664969
 30
0.0
 11
87.36178596171857
 21
183.4708126016869
 31
0.0
  0
LINE
  5
A6D
330
1F
100
AcDbEntity
  8
グラデーション
100
AcDbLine
 10
87.36178596171857
 20
183.4708126016869
 30
0.0
 11
85.86178596171857
 21
184.4149455626402
 31
0.0
  0
LINE
  5
A6E
330
1F
100
AcDbEntity
  8
グラデーション
100
AcDbLine
 10
85.86178596171857
 20
184.4149455626402
 30
0.0
 11
87.36178596171857
 21
185.4599579398259
 31
0.0
  0
LINE
  5
A6F
330
1F
100
AcDbEntity
  8
グラデーション
100
AcDbLine
 10
87.36178596171857
 20
186.5969340561027
 30
0.0
 11
85.86178596171857
 21
185.4599579398259
 31
0.0
  0
LINE
  5
A70
330
1F
100
AcDbEntity
  8
グラデーション
100
AcDbLine
 10
87.36178596171857
 20
185.4599579398259
 30
0.0
 11
85.86178596171857
 21
186.5969340561027
 31
0.0
  0
LINE
  5
A71
330
1F
100
AcDbEntity
  8
グラデーション
100
AcDbLine
 10
88.86178596171857
 20
184.4149455626402
 30
0.0
 11
90.36178596171856
 21
185.4599579398259
 31
0.0
  0
LINE
  5
A72
330
1F
100
AcDbEntity
  8
グラデーション
100
AcDbLine
 10
88.86178596171857
 20
185.4599579398259
 30
0.0
 11
90.36178596171856
 21
184.4149455626402
 31
0.0
  0
LINE
  5
A73
330
1F
100
AcDbEntity
  8
グラデーション
100
AcDbLine
 10
90.36178596171856
 20
184.4149455626402
 30
0.0
 11
88.86178596171857
 21
183.470812601687
 31
0.0
  0
LINE
  5
A74
330
1F
100
AcDbEntity
  8
グラデーション
100
AcDbLine
 10
90.36178596171856
 20
183.470812601687
 30
0.0
 11
88.86178596171857
 21
184.4149455626402
 31
0.0
  0
LINE
  5
A75
330
1F
100
AcDbEntity
  8
グラデーション
100
AcDbLine
 10
88.86178596171857
 20
182.6356140664969
 30
0.0
 11
90.36178596171856
 21
183.470812601687
 31
0.0
  0
LINE
  5
A76
330
1F
100
AcDbEntity
  8
グラデーション
100
AcDbLine
 10
88.86178596171857
 20
183.470812601687
 30
0.0
 11
90.36178596171856
 21
182.6356140664969
 31
0.0
  0
LINE
  5
A77
330
1F
100
AcDbEntity
  8
グラデーション
100
AcDbLine
 10
90.36178596171856
 20
182.6356140664969
 30
0.0
 11
88.86178596171857
 21
181.9164755764898
 31
0.0
  0
LINE
  5
A78
330
1F
100
AcDbEntity
  8
グラデーション
100
AcDbLine
 10
90.36178596171856
 20
181.9164755764898
 30
0.0
 11
88.86178596171857
 21
182.6356140664969
 31
0.0
  0
LINE
  5
A79
330
1F
100
AcDbEntity
  8
グラデーション
100
AcDbLine
 10
90.36178596171856
 20
186.5969340561027
 30
0.0
 11
88.86178596171857
 21
185.4599579398259
 31
0.0
  0
LINE
  5
A7A
330
1F
100
AcDbEntity
  8
グラデーション
100
AcDbLine
 10
90.36178596171856
 20
185.4599579398259
 30
0.0
 11
88.86178596171857
 21
186.5969340561027
 31
0.0
  0
LINE
  5
A7B
330
1F
100
AcDbEntity
  8
グラデーション
100
AcDbLine
 10
91.86178596171856
 20
186.5969340561027
 30
0.0
 11
90.36178596171856
 21
185.4599579398259
 31
0.0
  0
LINE
  5
A7C
330
1F
100
AcDbEntity
  8
グラデーション
100
AcDbLine
 10
91.86178596171856
 20
185.4599579398259
 30
0.0
 11
90.36178596171856
 21
186.5969340561027
 31
0.0
  0
LINE
  5
A7D
330
1F
100
AcDbEntity
  8
グラデーション
100
AcDbLine
 10
90.36178596171856
 20
184.4149455626402
 30
0.0
 11
91.86178596171856
 21
185.4599579398259
 31
0.0
  0
LINE
  5
A7E
330
1F
100
AcDbEntity
  8
グラデーション
100
AcDbLine
 10
90.36178596171856
 20
185.4599579398259
 30
0.0
 11
91.86178596171856
 21
184.4149455626402
 31
0.0
  0
LINE
  5
A7F
330
1F
100
AcDbEntity
  8
グラデーション
100
AcDbLine
 10
91.86178596171856
 20
184.4149455626402
 30
0.0
 11
90.36178596171856
 21
183.4708126016869
 31
0.0
  0
LINE
  5
A80
330
1F
100
AcDbEntity
  8
グラデーション
100
AcDbLine
 10
91.86178596171856
 20
183.4708126016869
 30
0.0
 11
90.36178596171856
 21
184.4149455626402
 31
0.0
  0
LINE
  5
A81
330
1F
100
AcDbEntity
  8
グラデーション
100
AcDbLine
 10
90.36178596171856
 20
182.6356140664969
 30
0.0
 11
91.86178596171856
 21
183.4708126016869
 31
0.0
  0
LINE
  5
A82
330
1F
100
AcDbEntity
  8
グラデーション
100
AcDbLine
 10
90.36178596171856
 20
183.4708126016869
 30
0.0
 11
91.86178596171856
 21
182.6356140664969
 31
0.0
  0
LINE
  5
A83
330
1F
100
AcDbEntity
  8
グラデーション
100
AcDbLine
 10
91.86178596171856
 20
182.6356140664969
 30
0.0
 11
90.36178596171856
 21
181.9164755764898
 31
0.0
  0
LINE
  5
A84
330
1F
100
AcDbEntity
  8
グラデーション
100
AcDbLine
 10
91.86178596171854
 20
181.9164755764898
 30
0.0
 11
90.36178596171856
 21
182.6356140664969
 31
0.0
  0
LINE
  5
A85
330
1F
100
AcDbEntity
  8
グラデーション
100
AcDbLine
 10
88.86178596171857
 20
191.8604803970175
 30
0.0
 11
87.36178596171857
 21
190.4592215791763
 31
0.0
  0
LINE
  5
A86
330
1F
100
AcDbEntity
  8
グラデーション
100
AcDbLine
 10
88.86178596171857
 20
190.4592215791763
 30
0.0
 11
87.36178596171859
 21
191.8604803970175
 31
0.0
  0
LINE
  5
A87
330
1F
100
AcDbEntity
  8
グラデーション
100
AcDbLine
 10
87.36178596171857
 20
189.1072745457462
 30
0.0
 11
88.86178596171857
 21
190.4592215791763
 31
0.0
  0
LINE
  5
A88
330
1F
100
AcDbEntity
  8
グラデーション
100
AcDbLine
 10
87.36178596171857
 20
190.4592215791763
 30
0.0
 11
88.86178596171857
 21
189.1072745457462
 31
0.0
  0
LINE
  5
A89
330
1F
100
AcDbEntity
  8
グラデーション
100
AcDbLine
 10
88.86178596171857
 20
189.1072745457462
 30
0.0
 11
87.36178596171857
 21
187.8161736321331
 31
0.0
  0
LINE
  5
A8A
330
1F
100
AcDbEntity
  8
グラデーション
100
AcDbLine
 10
88.86178596171857
 20
187.8161736321331
 30
0.0
 11
87.36178596171857
 21
189.1072745457462
 31
0.0
  0
LINE
  5
A8B
330
1F
100
AcDbEntity
  8
グラデーション
100
AcDbLine
 10
87.36178596171859
 20
191.8604803970175
 30
0.0
 11
88.86178596171857
 21
193.2990959531057
 31
0.0
  0
LINE
  5
A8C
330
1F
100
AcDbEntity
  8
グラデーション
100
AcDbLine
 10
87.36178596171859
 20
193.2990959531057
 30
0.0
 11
88.86178596171857
 21
191.8604803970175
 31
0.0
  0
LINE
  5
A8D
330
1F
100
AcDbEntity
  8
グラデーション
100
AcDbLine
 10
87.36178596171859
 20
191.8604803970175
 30
0.0
 11
85.86178596171858
 21
190.4592215791764
 31
0.0
  0
LINE
  5
A8E
330
1F
100
AcDbEntity
  8
グラデーション
100
AcDbLine
 10
85.86178596171858
 20
190.4592215791764
 30
0.0
 11
87.36178596171857
 21
189.1072745457462
 31
0.0
  0
LINE
  5
A8F
330
1F
100
AcDbEntity
  8
グラデーション
100
AcDbLine
 10
87.36178596171857
 20
189.1072745457462
 30
0.0
 11
85.86178596171858
 21
187.8161736321331
 31
0.0
  0
LINE
  5
A90
330
1F
100
AcDbEntity
  8
グラデーション
100
AcDbLine
 10
87.36178596171857
 20
187.8161736321331
 30
0.0
 11
85.86178596171858
 21
189.1072745457462
 31
0.0
  0
LINE
  5
A91
330
1F
100
AcDbEntity
  8
グラデーション
100
AcDbLine
 10
85.86178596171858
 20
189.1072745457462
 30
0.0
 11
87.36178596171857
 21
190.4592215791764
 31
0.0
  0
LINE
  5
A92
330
1F
100
AcDbEntity
  8
グラデーション
100
AcDbLine
 10
87.36178596171857
 20
190.4592215791764
 30
0.0
 11
85.8617859617186
 21
191.8604803970175
 31
0.0
  0
LINE
  5
A93
330
1F
100
AcDbEntity
  8
グラデーション
100
AcDbLine
 10
85.8617859617186
 20
193.2990959531057
 30
0.0
 11
87.36178596171859
 21
191.8604803970175
 31
0.0
  0
LINE
  5
A94
330
1F
100
AcDbEntity
  8
グラデーション
100
AcDbLine
 10
85.8617859617186
 20
191.8604803970175
 30
0.0
 11
87.36178596171859
 21
193.2990959531057
 31
0.0
  0
LINE
  5
A95
330
1F
100
AcDbEntity
  8
グラデーション
100
AcDbLine
 10
90.36178596171859
 20
191.8604803970175
 30
0.0
 11
88.86178596171859
 21
190.4592215791764
 31
0.0
  0
LINE
  5
A96
330
1F
100
AcDbEntity
  8
グラデーション
100
AcDbLine
 10
90.36178596171858
 20
190.4592215791764
 30
0.0
 11
88.86178596171859
 21
191.8604803970175
 31
0.0
  0
LINE
  5
A97
330
1F
100
AcDbEntity
  8
グラデーション
100
AcDbLine
 10
88.86178596171859
 20
189.1072745457462
 30
0.0
 11
90.36178596171858
 21
190.4592215791764
 31
0.0
  0
LINE
  5
A98
330
1F
100
AcDbEntity
  8
グラデーション
100
AcDbLine
 10
88.86178596171859
 20
190.4592215791764
 30
0.0
 11
90.36178596171858
 21
189.1072745457462
 31
0.0
  0
LINE
  5
A99
330
1F
100
AcDbEntity
  8
グラデーション
100
AcDbLine
 10
90.36178596171858
 20
189.1072745457462
 30
0.0
 11
88.86178596171859
 21
187.8161736321331
 31
0.0
  0
LINE
  5
A9A
330
1F
100
AcDbEntity
  8
グラデーション
100
AcDbLine
 10
90.36178596171858
 20
187.8161736321331
 30
0.0
 11
88.86178596171859
 21
189.1072745457462
 31
0.0
  0
LINE
  5
A9B
330
1F
100
AcDbEntity
  8
グラデーション
100
AcDbLine
 10
91.86178596171856
 20
191.8604803970175
 30
0.0
 11
90.36178596171856
 21
190.4592215791763
 31
0.0
  0
LINE
  5
A9C
330
1F
100
AcDbEntity
  8
グラデーション
100
AcDbLine
 10
91.86178596171856
 20
190.4592215791763
 30
0.0
 11
90.36178596171858
 21
191.8604803970175
 31
0.0
  0
LINE
  5
A9D
330
1F
100
AcDbEntity
  8
グラデーション
100
AcDbLine
 10
90.36178596171856
 20
189.1072745457462
 30
0.0
 11
91.86178596171856
 21
190.4592215791763
 31
0.0
  0
LINE
  5
A9E
330
1F
100
AcDbEntity
  8
グラデーション
100
AcDbLine
 10
90.36178596171856
 20
190.4592215791763
 30
0.0
 11
91.86178596171856
 21
189.1072745457462
 31
0.0
  0
LINE
  5
A9F
330
1F
100
AcDbEntity
  8
グラデーション
100
AcDbLine
 10
91.86178596171856
 20
189.1072745457462
 30
0.0
 11
90.36178596171856
 21
187.8161736321331
 31
0.0
  0
LINE
  5
AA0
330
1F
100
AcDbEntity
  8
グラデーション
100
AcDbLine
 10
91.86178596171856
 20
187.8161736321331
 30
0.0
 11
90.36178596171856
 21
189.1072745457462
 31
0.0
  0
LINE
  5
AA1
330
1F
100
AcDbEntity
  8
グラデーション
100
AcDbLine
 10
88.86178596171859
 20
191.8604803970175
 30
0.0
 11
90.36178596171859
 21
193.2990959531057
 31
0.0
  0
LINE
  5
AA2
330
1F
100
AcDbEntity
  8
グラデーション
100
AcDbLine
 10
88.86178596171859
 20
193.2990959531057
 30
0.0
 11
90.36178596171859
 21
191.8604803970175
 31
0.0
  0
LINE
  5
AA3
330
1F
100
AcDbEntity
  8
グラデーション
100
AcDbLine
 10
90.36178596171858
 20
191.8604803970175
 30
0.0
 11
91.86178596171856
 21
193.2990959531057
 31
0.0
  0
LINE
  5
AA4
330
1F
100
AcDbEntity
  8
グラデーション
100
AcDbLine
 10
90.36178596171858
 20
193.2990959531057
 30
0.0
 11
91.86178596171856
 21
191.8604803970175
 31
0.0
  0
LINE
  5
AA5
330
1F
100
AcDbEntity
  8
グラデーション
100
AcDbLine
 10
93.36178596171857
 20
186.5969340561026
 30
0.0
 11
94.86178596171857
 21
187.8161736321331
 31
0.0
  0
LINE
  5
AA6
330
1F
100
AcDbEntity
  8
グラデーション
100
AcDbLine
 10
93.36178596171857
 20
187.8161736321331
 30
0.0
 11
94.86178596171857
 21
186.5969340561026
 31
0.0
  0
LINE
  5
AA7
330
1F
100
AcDbEntity
  8
グラデーション
100
AcDbLine
 10
93.36178596171857
 20
184.4149455626402
 30
0.0
 11
94.86178596171857
 21
185.4599579398259
 31
0.0
  0
LINE
  5
AA8
330
1F
100
AcDbEntity
  8
グラデーション
100
AcDbLine
 10
93.36178596171857
 20
185.4599579398259
 30
0.0
 11
94.86178596171857
 21
184.4149455626402
 31
0.0
  0
LINE
  5
AA9
330
1F
100
AcDbEntity
  8
グラデーション
100
AcDbLine
 10
94.86178596171857
 20
184.4149455626402
 30
0.0
 11
93.36178596171857
 21
183.4708126016869
 31
0.0
  0
LINE
  5
AAA
330
1F
100
AcDbEntity
  8
グラデーション
100
AcDbLine
 10
94.86178596171857
 20
183.4708126016869
 30
0.0
 11
93.36178596171857
 21
184.4149455626402
 31
0.0
  0
LINE
  5
AAB
330
1F
100
AcDbEntity
  8
グラデーション
100
AcDbLine
 10
93.36178596171857
 20
182.6356140664969
 30
0.0
 11
94.86178596171857
 21
183.4708126016869
 31
0.0
  0
LINE
  5
AAC
330
1F
100
AcDbEntity
  8
グラデーション
100
AcDbLine
 10
93.36178596171857
 20
183.4708126016869
 30
0.0
 11
94.86178596171857
 21
182.6356140664969
 31
0.0
  0
LINE
  5
AAD
330
1F
100
AcDbEntity
  8
グラデーション
100
AcDbLine
 10
94.86178596171857
 20
182.6356140664969
 30
0.0
 11
93.36178596171857
 21
181.9164755764898
 31
0.0
  0
LINE
  5
AAE
330
1F
100
AcDbEntity
  8
グラデーション
100
AcDbLine
 10
94.86178596171855
 20
181.9164755764898
 30
0.0
 11
93.36178596171857
 21
182.6356140664969
 31
0.0
  0
LINE
  5
AAF
330
1F
100
AcDbEntity
  8
グラデーション
100
AcDbLine
 10
94.86178596171857
 20
186.5969340561026
 30
0.0
 11
93.36178596171857
 21
185.4599579398259
 31
0.0
  0
LINE
  5
AB0
330
1F
100
AcDbEntity
  8
グラデーション
100
AcDbLine
 10
94.86178596171857
 20
185.4599579398259
 30
0.0
 11
93.36178596171857
 21
186.5969340561026
 31
0.0
  0
LINE
  5
AB1
330
1F
100
AcDbEntity
  8
グラデーション
100
AcDbLine
 10
94.86178596171857
 20
191.8604803970175
 30
0.0
 11
93.36178596171857
 21
190.4592215791763
 31
0.0
  0
LINE
  5
AB2
330
1F
100
AcDbEntity
  8
グラデーション
100
AcDbLine
 10
94.86178596171857
 20
190.4592215791763
 30
0.0
 11
93.36178596171858
 21
191.8604803970175
 31
0.0
  0
LINE
  5
AB3
330
1F
100
AcDbEntity
  8
グラデーション
100
AcDbLine
 10
93.36178596171857
 20
189.1072745457462
 30
0.0
 11
94.86178596171857
 21
190.4592215791763
 31
0.0
  0
LINE
  5
AB4
330
1F
100
AcDbEntity
  8
グラデーション
100
AcDbLine
 10
93.36178596171857
 20
190.4592215791763
 30
0.0
 11
94.86178596171857
 21
189.1072745457462
 31
0.0
  0
LINE
  5
AB5
330
1F
100
AcDbEntity
  8
グラデーション
100
AcDbLine
 10
94.86178596171857
 20
189.1072745457462
 30
0.0
 11
93.36178596171857
 21
187.8161736321331
 31
0.0
  0
LINE
  5
AB6
330
1F
100
AcDbEntity
  8
グラデーション
100
AcDbLine
 10
94.86178596171857
 20
187.8161736321331
 30
0.0
 11
93.36178596171857
 21
189.1072745457462
 31
0.0
  0
LINE
  5
AB7
330
1F
100
AcDbEntity
  8
グラデーション
100
AcDbLine
 10
93.36178596171858
 20
191.8604803970175
 30
0.0
 11
94.86178596171857
 21
193.2990959531057
 31
0.0
  0
LINE
  5
AB8
330
1F
100
AcDbEntity
  8
グラデーション
100
AcDbLine
 10
93.36178596171858
 20
193.2990959531057
 30
0.0
 11
94.86178596171857
 21
191.8604803970175
 31
0.0
  0
LINE
  5
AB9
330
1F
100
AcDbEntity
  8
グラデーション
100
AcDbLine
 10
91.8617859617186
 20
194.762794486758
 30
0.0
 11
93.3617859617186
 21
196.2390882381708
 31
0.0
  0
LINE
  5
ABA
330
1F
100
AcDbEntity
  8
グラデーション
100
AcDbLine
 10
91.8617859617186
 20
196.2390882381708
 30
0.0
 11
93.3617859617186
 21
194.762794486758
 31
0.0
  0
LINE
  5
ABB
330
1F
100
AcDbEntity
  8
グラデーション
100
AcDbLine
 10
85.8617859617186
 20
194.762794486758
 30
0.0
 11
94.86178596171859
 21
194.762794486758
 31
0.0
  0
LINE
  5
ABC
330
1F
100
AcDbEntity
  8
グラデーション
100
AcDbLine
 10
93.3617859617186
 20
204.6620028442085
 30
0.0
 11
91.8617859617186
 21
203.3709019305954
 31
0.0
  0
LINE
  5
ABD
330
1F
100
AcDbEntity
  8
グラデーション
100
AcDbLine
 10
93.3617859617186
 20
203.3709019305954
 30
0.0
 11
91.8617859617186
 21
204.6620028442085
 31
0.0
  0
LINE
  5
ABE
330
1F
100
AcDbEntity
  8
グラデーション
100
AcDbLine
 10
91.8617859617186
 20
202.0189548971652
 30
0.0
 11
93.3617859617186
 21
203.3709019305954
 31
0.0
  0
LINE
  5
ABF
330
1F
100
AcDbEntity
  8
グラデーション
100
AcDbLine
 10
91.8617859617186
 20
203.3709019305954
 30
0.0
 11
93.3617859617186
 21
202.0189548971652
 31
0.0
  0
LINE
  5
AC0
330
1F
100
AcDbEntity
  8
グラデーション
100
AcDbLine
 10
93.3617859617186
 20
202.0189548971652
 30
0.0
 11
91.8617859617186
 21
200.6176960793241
 31
0.0
  0
LINE
  5
AC1
330
1F
100
AcDbEntity
  8
グラデーション
100
AcDbLine
 10
93.3617859617186
 20
200.6176960793241
 30
0.0
 11
91.8617859617186
 21
202.0189548971652
 31
0.0
  0
LINE
  5
AC2
330
1F
100
AcDbEntity
  8
グラデーション
100
AcDbLine
 10
91.8617859617186
 20
199.1790805232359
 30
0.0
 11
93.3617859617186
 21
200.6176960793241
 31
0.0
  0
LINE
  5
AC3
330
1F
100
AcDbEntity
  8
グラデーション
100
AcDbLine
 10
91.8617859617186
 20
200.6176960793241
 30
0.0
 11
93.3617859617186
 21
199.1790805232359
 31
0.0
  0
LINE
  5
AC4
330
1F
100
AcDbEntity
  8
グラデーション
100
AcDbLine
 10
93.3617859617186
 20
199.1790805232359
 30
0.0
 11
91.8617859617186
 21
197.7153819895835
 31
0.0
  0
LINE
  5
AC5
330
1F
100
AcDbEntity
  8
グラデーション
100
AcDbLine
 10
93.3617859617186
 20
197.7153819895835
 30
0.0
 11
91.8617859617186
 21
199.1790805232359
 31
0.0
  0
LINE
  5
AC6
330
1F
100
AcDbEntity
  8
グラデーション
100
AcDbLine
 10
91.8617859617186
 20
196.2390882381708
 30
0.0
 11
93.3617859617186
 21
197.7153819895835
 31
0.0
  0
LINE
  5
AC7
330
1F
100
AcDbEntity
  8
グラデーション
100
AcDbLine
 10
91.8617859617186
 20
197.7153819895835
 30
0.0
 11
93.3617859617186
 21
196.2390882381708
 31
0.0
  0
LINE
  5
AC8
330
1F
100
AcDbEntity
  8
グラデーション
100
AcDbLine
 10
85.8617859617186
 20
196.2390882381708
 30
0.0
 11
94.86178596171859
 21
196.2390882381708
 31
0.0
  0
LINE
  5
AC9
330
1F
100
AcDbEntity
  8
グラデーション
100
AcDbLine
 10
85.8617859617186
 20
204.6620028442085
 30
0.0
 11
94.86178596171859
 21
204.6620028442085
 31
0.0
  0
LINE
  5
ACA
330
1F
100
AcDbEntity
  8
グラデーション
100
AcDbLine
 10
85.8617859617186
 20
203.3709019305954
 30
0.0
 11
94.86178596171859
 21
203.3709019305954
 31
0.0
  0
LINE
  5
ACB
330
1F
100
AcDbEntity
  8
グラデーション
100
AcDbLine
 10
85.8617859617186
 20
200.6176960793241
 30
0.0
 11
94.86178596171859
 21
200.6176960793241
 31
0.0
  0
LINE
  5
ACC
330
1F
100
AcDbEntity
  8
グラデーション
100
AcDbLine
 10
85.8617859617186
 20
202.0189548971652
 30
0.0
 11
94.86178596171859
 21
202.0189548971652
 31
0.0
  0
LINE
  5
ACD
330
1F
100
AcDbEntity
  8
グラデーション
100
AcDbLine
 10
85.8617859617186
 20
199.1790805232359
 30
0.0
 11
94.86178596171859
 21
199.1790805232359
 31
0.0
  0
LINE
  5
ACE
330
1F
100
AcDbEntity
  8
グラデーション
100
AcDbLine
 10
85.8617859617186
 20
197.7153819895835
 30
0.0
 11
94.86178596171859
 21
197.7153819895835
 31
0.0
  0
LINE
  5
ACF
330
1F
100
AcDbEntity
  8
グラデーション
100
AcDbLine
 10
90.36178596171859
 20
199.1790805232359
 30
0.0
 11
91.86178596171858
 21
200.6176960793241
 31
0.0
  0
LINE
  5
AD0
330
1F
100
AcDbEntity
  8
グラデーション
100
AcDbLine
 10
90.36178596171859
 20
200.6176960793241
 30
0.0
 11
91.86178596171858
 21
199.1790805232359
 31
0.0
  0
LINE
  5
AD1
330
1F
100
AcDbEntity
  8
グラデーション
100
AcDbLine
 10
88.86178596171859
 20
199.1790805232359
 30
0.0
 11
90.36178596171859
 21
200.6176960793241
 31
0.0
  0
LINE
  5
AD2
330
1F
100
AcDbEntity
  8
グラデーション
100
AcDbLine
 10
88.86178596171859
 20
200.6176960793241
 30
0.0
 11
90.36178596171859
 21
199.1790805232359
 31
0.0
  0
LINE
  5
AD3
330
1F
100
AcDbEntity
  8
グラデーション
100
AcDbLine
 10
87.36178596171859
 20
199.1790805232359
 30
0.0
 11
88.86178596171857
 21
200.6176960793241
 31
0.0
  0
LINE
  5
AD4
330
1F
100
AcDbEntity
  8
グラデーション
100
AcDbLine
 10
87.36178596171859
 20
200.6176960793241
 30
0.0
 11
88.86178596171857
 21
199.1790805232359
 31
0.0
  0
LINE
  5
AD5
330
1F
100
AcDbEntity
  8
グラデーション
100
AcDbLine
 10
85.8617859617186
 20
200.6176960793241
 30
0.0
 11
87.36178596171859
 21
199.1790805232359
 31
0.0
  0
LINE
  5
AD6
330
1F
100
AcDbEntity
  8
グラデーション
100
AcDbLine
 10
85.8617859617186
 20
199.1790805232359
 30
0.0
 11
87.36178596171859
 21
200.6176960793241
 31
0.0
  0
LINE
  5
AD7
330
1F
100
AcDbEntity
  8
グラデーション
100
AcDbLine
 10
87.36178596171859
 20
194.762794486758
 30
0.0
 11
88.86178596171859
 21
196.2390882381708
 31
0.0
  0
LINE
  5
AD8
330
1F
100
AcDbEntity
  8
グラデーション
100
AcDbLine
 10
87.36178596171859
 20
196.2390882381708
 30
0.0
 11
88.86178596171857
 21
194.762794486758
 31
0.0
  0
LINE
  5
AD9
330
1F
100
AcDbEntity
  8
グラデーション
100
AcDbLine
 10
88.86178596171857
 20
199.1790805232359
 30
0.0
 11
87.36178596171859
 21
197.7153819895835
 31
0.0
  0
LINE
  5
ADA
330
1F
100
AcDbEntity
  8
グラデーション
100
AcDbLine
 10
88.86178596171857
 20
197.7153819895835
 30
0.0
 11
87.36178596171859
 21
199.1790805232359
 31
0.0
  0
LINE
  5
ADB
330
1F
100
AcDbEntity
  8
グラデーション
100
AcDbLine
 10
87.36178596171859
 20
196.2390882381708
 30
0.0
 11
88.86178596171857
 21
197.7153819895835
 31
0.0
  0
LINE
  5
ADC
330
1F
100
AcDbEntity
  8
グラデーション
100
AcDbLine
 10
87.36178596171859
 20
197.7153819895835
 30
0.0
 11
88.86178596171859
 21
196.2390882381708
 31
0.0
  0
LINE
  5
ADD
330
1F
100
AcDbEntity
  8
グラデーション
100
AcDbLine
 10
85.8617859617186
 20
196.2390882381708
 30
0.0
 11
87.36178596171859
 21
194.762794486758
 31
0.0
  0
LINE
  5
ADE
330
1F
100
AcDbEntity
  8
グラデーション
100
AcDbLine
 10
85.8617859617186
 20
194.762794486758
 30
0.0
 11
87.36178596171859
 21
196.2390882381708
 31
0.0
  0
LINE
  5
ADF
330
1F
100
AcDbEntity
  8
グラデーション
100
AcDbLine
 10
85.8617859617186
 20
197.7153819895835
 30
0.0
 11
87.36178596171859
 21
196.2390882381708
 31
0.0
  0
LINE
  5
AE0
330
1F
100
AcDbEntity
  8
グラデーション
100
AcDbLine
 10
87.36178596171859
 20
199.1790805232359
 30
0.0
 11
85.8617859617186
 21
197.7153819895835
 31
0.0
  0
LINE
  5
AE1
330
1F
100
AcDbEntity
  8
グラデーション
100
AcDbLine
 10
87.36178596171859
 20
197.7153819895835
 30
0.0
 11
85.8617859617186
 21
199.1790805232359
 31
0.0
  0
LINE
  5
AE2
330
1F
100
AcDbEntity
  8
グラデーション
100
AcDbLine
 10
85.8617859617186
 20
196.2390882381708
 30
0.0
 11
87.36178596171859
 21
197.7153819895835
 31
0.0
  0
LINE
  5
AE3
330
1F
100
AcDbEntity
  8
グラデーション
100
AcDbLine
 10
88.86178596171859
 20
194.762794486758
 30
0.0
 11
90.36178596171859
 21
196.2390882381708
 31
0.0
  0
LINE
  5
AE4
330
1F
100
AcDbEntity
  8
グラデーション
100
AcDbLine
 10
88.86178596171859
 20
196.2390882381708
 30
0.0
 11
90.36178596171859
 21
194.762794486758
 31
0.0
  0
LINE
  5
AE5
330
1F
100
AcDbEntity
  8
グラデーション
100
AcDbLine
 10
90.36178596171858
 20
194.762794486758
 30
0.0
 11
91.8617859617186
 21
196.2390882381708
 31
0.0
  0
LINE
  5
AE6
330
1F
100
AcDbEntity
  8
グラデーション
100
AcDbLine
 10
90.36178596171859
 20
196.2390882381708
 30
0.0
 11
91.86178596171856
 21
194.762794486758
 31
0.0
  0
LINE
  5
AE7
330
1F
100
AcDbEntity
  8
グラデーション
100
AcDbLine
 10
91.86178596171858
 20
199.1790805232359
 30
0.0
 11
90.36178596171859
 21
197.7153819895835
 31
0.0
  0
LINE
  5
AE8
330
1F
100
AcDbEntity
  8
グラデーション
100
AcDbLine
 10
91.86178596171858
 20
197.7153819895835
 30
0.0
 11
90.36178596171859
 21
199.1790805232359
 31
0.0
  0
LINE
  5
AE9
330
1F
100
AcDbEntity
  8
グラデーション
100
AcDbLine
 10
90.36178596171859
 20
196.2390882381708
 30
0.0
 11
91.86178596171858
 21
197.7153819895835
 31
0.0
  0
LINE
  5
AEA
330
1F
100
AcDbEntity
  8
グラデーション
100
AcDbLine
 10
90.36178596171859
 20
197.7153819895835
 30
0.0
 11
91.8617859617186
 21
196.2390882381708
 31
0.0
  0
LINE
  5
AEB
330
1F
100
AcDbEntity
  8
グラデーション
100
AcDbLine
 10
90.36178596171859
 20
199.1790805232359
 30
0.0
 11
88.86178596171859
 21
197.7153819895835
 31
0.0
  0
LINE
  5
AEC
330
1F
100
AcDbEntity
  8
グラデーション
100
AcDbLine
 10
90.36178596171859
 20
197.7153819895835
 30
0.0
 11
88.86178596171859
 21
199.1790805232359
 31
0.0
  0
LINE
  5
AED
330
1F
100
AcDbEntity
  8
グラデーション
100
AcDbLine
 10
88.86178596171859
 20
196.2390882381708
 30
0.0
 11
90.36178596171859
 21
197.7153819895835
 31
0.0
  0
LINE
  5
AEE
330
1F
100
AcDbEntity
  8
グラデーション
100
AcDbLine
 10
88.86178596171859
 20
197.7153819895835
 30
0.0
 11
90.36178596171859
 21
196.2390882381708
 31
0.0
  0
LINE
  5
AEF
330
1F
100
AcDbEntity
  8
グラデーション
100
AcDbLine
 10
88.86178596171857
 20
204.6620028442085
 30
0.0
 11
87.36178596171859
 21
203.3709019305954
 31
0.0
  0
LINE
  5
AF0
330
1F
100
AcDbEntity
  8
グラデーション
100
AcDbLine
 10
88.86178596171857
 20
203.3709019305954
 30
0.0
 11
87.36178596171859
 21
204.6620028442085
 31
0.0
  0
LINE
  5
AF1
330
1F
100
AcDbEntity
  8
グラデーション
100
AcDbLine
 10
87.36178596171859
 20
202.0189548971652
 30
0.0
 11
88.86178596171857
 21
203.3709019305954
 31
0.0
  0
LINE
  5
AF2
330
1F
100
AcDbEntity
  8
グラデーション
100
AcDbLine
 10
87.36178596171859
 20
203.3709019305954
 30
0.0
 11
88.86178596171857
 21
202.0189548971652
 31
0.0
  0
LINE
  5
AF3
330
1F
100
AcDbEntity
  8
グラデーション
100
AcDbLine
 10
88.86178596171857
 20
202.0189548971652
 30
0.0
 11
87.36178596171859
 21
200.6176960793241
 31
0.0
  0
LINE
  5
AF4
330
1F
100
AcDbEntity
  8
グラデーション
100
AcDbLine
 10
88.86178596171857
 20
200.6176960793241
 30
0.0
 11
87.36178596171859
 21
202.0189548971652
 31
0.0
  0
LINE
  5
AF5
330
1F
100
AcDbEntity
  8
グラデーション
100
AcDbLine
 10
87.36178596171859
 20
202.0189548971652
 30
0.0
 11
85.8617859617186
 21
200.6176960793241
 31
0.0
  0
LINE
  5
AF6
330
1F
100
AcDbEntity
  8
グラデーション
100
AcDbLine
 10
85.8617859617186
 20
203.3709019305954
 30
0.0
 11
87.36178596171859
 21
202.0189548971652
 31
0.0
  0
LINE
  5
AF7
330
1F
100
AcDbEntity
  8
グラデーション
100
AcDbLine
 10
87.36178596171859
 20
204.6620028442085
 30
0.0
 11
85.8617859617186
 21
203.3709019305954
 31
0.0
  0
LINE
  5
AF8
330
1F
100
AcDbEntity
  8
グラデーション
100
AcDbLine
 10
87.36178596171859
 20
203.3709019305954
 30
0.0
 11
85.8617859617186
 21
204.6620028442085
 31
0.0
  0
LINE
  5
AF9
330
1F
100
AcDbEntity
  8
グラデーション
100
AcDbLine
 10
85.8617859617186
 20
202.0189548971652
 30
0.0
 11
87.36178596171859
 21
203.3709019305954
 31
0.0
  0
LINE
  5
AFA
330
1F
100
AcDbEntity
  8
グラデーション
100
AcDbLine
 10
87.36178596171859
 20
200.6176960793241
 30
0.0
 11
85.8617859617186
 21
202.0189548971652
 31
0.0
  0
LINE
  5
AFB
330
1F
100
AcDbEntity
  8
グラデーション
100
AcDbLine
 10
91.86178596171858
 20
204.6620028442085
 30
0.0
 11
90.36178596171859
 21
203.3709019305954
 31
0.0
  0
LINE
  5
AFC
330
1F
100
AcDbEntity
  8
グラデーション
100
AcDbLine
 10
91.86178596171858
 20
203.3709019305954
 30
0.0
 11
90.36178596171859
 21
204.6620028442085
 31
0.0
  0
LINE
  5
AFD
330
1F
100
AcDbEntity
  8
グラデーション
100
AcDbLine
 10
90.36178596171859
 20
202.0189548971652
 30
0.0
 11
91.86178596171858
 21
203.3709019305954
 31
0.0
  0
LINE
  5
AFE
330
1F
100
AcDbEntity
  8
グラデーション
100
AcDbLine
 10
90.36178596171859
 20
203.3709019305954
 30
0.0
 11
91.86178596171858
 21
202.0189548971652
 31
0.0
  0
LINE
  5
AFF
330
1F
100
AcDbEntity
  8
グラデーション
100
AcDbLine
 10
91.86178596171858
 20
202.0189548971652
 30
0.0
 11
90.36178596171859
 21
200.6176960793241
 31
0.0
  0
LINE
  5
B00
330
1F
100
AcDbEntity
  8
グラデーション
100
AcDbLine
 10
91.86178596171858
 20
200.6176960793241
 30
0.0
 11
90.36178596171859
 21
202.0189548971652
 31
0.0
  0
LINE
  5
B01
330
1F
100
AcDbEntity
  8
グラデーション
100
AcDbLine
 10
90.36178596171859
 20
204.6620028442085
 30
0.0
 11
88.86178596171859
 21
203.3709019305954
 31
0.0
  0
LINE
  5
B02
330
1F
100
AcDbEntity
  8
グラデーション
100
AcDbLine
 10
90.36178596171859
 20
203.3709019305954
 30
0.0
 11
88.86178596171859
 21
204.6620028442085
 31
0.0
  0
LINE
  5
B03
330
1F
100
AcDbEntity
  8
グラデーション
100
AcDbLine
 10
88.86178596171859
 20
202.0189548971652
 30
0.0
 11
90.36178596171859
 21
203.3709019305954
 31
0.0
  0
LINE
  5
B04
330
1F
100
AcDbEntity
  8
グラデーション
100
AcDbLine
 10
88.86178596171859
 20
203.3709019305954
 30
0.0
 11
90.36178596171859
 21
202.0189548971652
 31
0.0
  0
LINE
  5
B05
330
1F
100
AcDbEntity
  8
グラデーション
100
AcDbLine
 10
90.36178596171859
 20
202.0189548971652
 30
0.0
 11
88.86178596171859
 21
200.6176960793241
 31
0.0
  0
LINE
  5
B06
330
1F
100
AcDbEntity
  8
グラデーション
100
AcDbLine
 10
90.36178596171859
 20
200.6176960793241
 30
0.0
 11
88.86178596171859
 21
202.0189548971652
 31
0.0
  0
LINE
  5
B07
330
1F
100
AcDbEntity
  8
グラデーション
100
AcDbLine
 10
93.3617859617186
 20
199.1790805232359
 30
0.0
 11
94.86178596171859
 21
200.6176960793241
 31
0.0
  0
LINE
  5
B08
330
1F
100
AcDbEntity
  8
グラデーション
100
AcDbLine
 10
93.3617859617186
 20
200.6176960793241
 30
0.0
 11
94.86178596171859
 21
199.1790805232359
 31
0.0
  0
LINE
  5
B09
330
1F
100
AcDbEntity
  8
グラデーション
100
AcDbLine
 10
93.36178596171858
 20
194.762794486758
 30
0.0
 11
94.86178596171859
 21
196.2390882381708
 31
0.0
  0
LINE
  5
B0A
330
1F
100
AcDbEntity
  8
グラデーション
100
AcDbLine
 10
93.3617859617186
 20
196.2390882381708
 30
0.0
 11
94.86178596171857
 21
194.762794486758
 31
0.0
  0
LINE
  5
B0B
330
1F
100
AcDbEntity
  8
グラデーション
100
AcDbLine
 10
94.86178596171859
 20
199.1790805232359
 30
0.0
 11
93.3617859617186
 21
197.7153819895835
 31
0.0
  0
LINE
  5
B0C
330
1F
100
AcDbEntity
  8
グラデーション
100
AcDbLine
 10
94.86178596171859
 20
197.7153819895835
 30
0.0
 11
93.3617859617186
 21
199.1790805232359
 31
0.0
  0
LINE
  5
B0D
330
1F
100
AcDbEntity
  8
グラデーション
100
AcDbLine
 10
93.3617859617186
 20
196.2390882381708
 30
0.0
 11
94.86178596171859
 21
197.7153819895835
 31
0.0
  0
LINE
  5
B0E
330
1F
100
AcDbEntity
  8
グラデーション
100
AcDbLine
 10
93.3617859617186
 20
197.7153819895835
 30
0.0
 11
94.86178596171859
 21
196.2390882381708
 31
0.0
  0
LINE
  5
B0F
330
1F
100
AcDbEntity
  8
グラデーション
100
AcDbLine
 10
94.86178596171859
 20
204.6620028442085
 30
0.0
 11
93.3617859617186
 21
203.3709019305954
 31
0.0
  0
LINE
  5
B10
330
1F
100
AcDbEntity
  8
グラデーション
100
AcDbLine
 10
94.86178596171859
 20
203.3709019305954
 30
0.0
 11
93.3617859617186
 21
204.6620028442085
 31
0.0
  0
LINE
  5
B11
330
1F
100
AcDbEntity
  8
グラデーション
100
AcDbLine
 10
93.3617859617186
 20
202.0189548971652
 30
0.0
 11
94.86178596171859
 21
203.3709019305954
 31
0.0
  0
LINE
  5
B12
330
1F
100
AcDbEntity
  8
グラデーション
100
AcDbLine
 10
93.3617859617186
 20
203.3709019305954
 30
0.0
 11
94.86178596171859
 21
202.0189548971652
 31
0.0
  0
LINE
  5
B13
330
1F
100
AcDbEntity
  8
グラデーション
100
AcDbLine
 10
94.86178596171859
 20
202.0189548971652
 30
0.0
 11
93.3617859617186
 21
200.6176960793241
 31
0.0
  0
LINE
  5
B14
330
1F
100
AcDbEntity
  8
グラデーション
100
AcDbLine
 10
94.86178596171859
 20
200.6176960793241
 30
0.0
 11
93.3617859617186
 21
202.0189548971652
 31
0.0
  0
LINE
  5
B15
330
1F
100
AcDbEntity
  8
細線
100
AcDbLine
 10
105.8617859617186
 20
184.3990614308713
 30
0.0
 11
105.8617859617186
 21
195.3757137069589
 31
0.0
  0
TEXT
  5
B16
330
1F
100
AcDbEntity
  8
文字
100
AcDbText
 10
106.7367859617186
 20
182.6535366295362
 30
0.0
 40
1.75
  1
C                0
 50
90.0
 41
0.7
  7
寸法
 72
     4
 11
105.8617859617186
 21
189.7293699628695
 31
0.0
100
AcDbText
  0
LINE
  5
B17
330
1F
100
AcDbEntity
  8
グラデーション
100
AcDbLine
 10
108.3617859617186
 20
184.2688298289672
 30
0.0
 11
110.3617859617186
 21
184.2688298289672
 31
0.0
  0
LINE
  5
B18
330
1F
100
AcDbEntity
  8
グラデーション
100
AcDbLine
 10
108.3617859617186
 20
183.4858312022265
 30
0.0
 11
110.3617859617186
 21
183.4858312022265
 31
0.0
  0
LINE
  5
B19
330
1F
100
AcDbEntity
  8
グラデーション
100
AcDbLine
 10
108.3617859617186
 20
182.8116388678448
 30
0.0
 11
110.3617859617186
 21
182.8116388678448
 31
0.0
  0
LINE
  5
B1A
330
1F
100
AcDbEntity
  8
グラデーション
100
AcDbLine
 10
108.3617859617186
 20
189.5530129015227
 30
0.0
 11
110.3617859617186
 21
189.5530129015227
 31
0.0
  0
LINE
  5
B1B
330
1F
100
AcDbEntity
  8
グラデーション
100
AcDbLine
 10
108.3617859617186
 20
188.3426057950104
 30
0.0
 11
110.3617859617186
 21
188.3426057950104
 31
0.0
  0
LINE
  5
B1C
330
1F
100
AcDbEntity
  8
グラデーション
100
AcDbLine
 10
108.3617859617186
 20
187.1995686924819
 30
0.0
 11
110.3617859617186
 21
187.1995686924819
 31
0.0
  0
LINE
  5
B1D
330
1F
100
AcDbEntity
  8
グラデーション
100
AcDbLine
 10
108.3617859617186
 20
186.1336535834724
 30
0.0
 11
110.3617859617186
 21
186.1336535834724
 31
0.0
  0
LINE
  5
B1E
330
1F
100
AcDbEntity
  8
グラデーション
100
AcDbLine
 10
108.3617859617186
 20
185.1539544798609
 30
0.0
 11
110.3617859617186
 21
185.1539544798609
 31
0.0
  0
LINE
  5
B1F
330
1F
100
AcDbEntity
  8
グラデーション
100
AcDbLine
 10
108.3617859617186
 20
193.4828454709222
 30
0.0
 11
110.3617859617186
 21
193.4828454709222
 31
0.0
  0
LINE
  5
B20
330
1F
100
AcDbEntity
  8
グラデーション
100
AcDbLine
 10
108.3617859617186
 20
192.1341433870895
 30
0.0
 11
110.3617859617186
 21
192.1341433870895
 31
0.0
  0
LINE
  5
B21
330
1F
100
AcDbEntity
  8
グラデーション
100
AcDbLine
 10
108.3617859617186
 20
190.8204632453634
 30
0.0
 11
110.3617859617186
 21
190.8204632453634
 31
0.0
  0
LINE
  5
B22
330
1F
100
AcDbEntity
  8
グラデーション
100
AcDbLine
 10
108.3617859617186
 20
182.2520047971054
 30
0.0
 11
110.3617859617186
 21
182.2520047971054
 31
0.0
  0
LINE
  5
B23
330
1F
100
AcDbEntity
  8
実線
100
AcDbLine
 10
103.8617859617186
 20
182.5390882381708
 30
0.0
 11
103.8617859617186
 21
182.5390882381708
 31
0.0
  0
LINE
  5
B24
330
1F
100
AcDbEntity
  8
グラデーション
100
AcDbLine
 10
108.1617859617186
 20
196.2390882381708
 30
0.0
 11
110.3617859617186
 21
196.2390882381708
 31
0.0
  0
LINE
  5
B25
330
1F
100
AcDbEntity
  8
グラデーション
100
AcDbLine
 10
108.3617859617186
 20
194.8550628462213
 30
0.0
 11
110.3617859617186
 21
194.8550628462213
 31
0.0
  0
LINE
  5
B26
330
1F
100
AcDbEntity
  8
グラデーション
100
AcDbLine
 10
108.3617859617186
 20
204.1355706813311
 30
0.0
 11
110.3617859617186
 21
204.1355706813311
 31
0.0
  0
LINE
  5
B27
330
1F
100
AcDbEntity
  8
グラデーション
100
AcDbLine
 10
108.3617859617186
 20
202.9251635748189
 30
0.0
 11
110.3617859617186
 21
202.9251635748189
 31
0.0
  0
LINE
  5
B28
330
1F
100
AcDbEntity
  8
グラデーション
100
AcDbLine
 10
108.3617859617186
 20
201.6577132309781
 30
0.0
 11
110.3617859617186
 21
201.6577132309781
 31
0.0
  0
LINE
  5
B29
330
1F
100
AcDbEntity
  8
グラデーション
100
AcDbLine
 10
108.3617859617186
 20
200.344033089252
 30
0.0
 11
110.3617859617186
 21
200.344033089252
 31
0.0
  0
LINE
  5
B2A
330
1F
100
AcDbEntity
  8
グラデーション
100
AcDbLine
 10
108.3617859617186
 20
198.9953310054193
 30
0.0
 11
110.3617859617186
 21
198.9953310054193
 31
0.0
  0
LINE
  5
B2B
330
1F
100
AcDbEntity
  8
グラデーション
100
AcDbLine
 10
108.3617859617186
 20
197.6231136301202
 30
0.0
 11
110.3617859617186
 21
197.6231136301202
 31
0.0
  0
LINE
  5
B2C
330
1F
100
AcDbEntity
  8
実線
100
AcDbLine
 10
85.06178596171858
 20
212.2390882381708
 30
0.0
 11
84.66178596171859
 21
211.8390882381708
 31
0.0
  0
LINE
  5
B2D
330
1F
100
AcDbEntity
  8
実線
 48
0.1
100
AcDbLine
 10
77.9617859617186
 20
212.2390882381708
 30
0.0
 11
81.6617859617186
 21
212.2390882381708
 31
0.0
  0
LINE
  5
B2E
330
1F
100
AcDbEntity
  8
実線
100
AcDbLine
 10
77.9617859617186
 20
212.2390882381708
 30
0.0
 11
77.66178596171861
 21
211.9390882381708
 31
0.0
  0
LINE
  5
B2F
330
1F
100
AcDbEntity
  8
実線
100
AcDbLine
 10
81.6617859617186
 20
212.2390882381708
 30
0.0
 11
82.6617859617186
 21
211.2390882381708
 31
0.0
  0
LINE
  5
B30
330
1F
100
AcDbEntity
  8
実線
 48
0.1
100
AcDbLine
 10
82.6617859617186
 20
211.2390882381708
 30
0.0
 11
84.66178596171861
 21
211.2390882381708
 31
0.0
  0
LINE
  5
B31
330
1F
100
AcDbEntity
  8
実線
100
AcDbLine
 10
99.46178596171861
 20
210.7390882381708
 30
0.0
 11
103.8617859617186
 21
210.7390882381708
 31
0.0
  0
LINE
  5
B32
330
1F
100
AcDbEntity
  8
細線
100
AcDbLine
 10
92.15967292912829
 20
218.2390882381708
 30
0.0
 11
92.15967292912829
 21
214.2390882381708
 31
0.0
  0
LINE
  5
B33
330
1F
100
AcDbEntity
  8
細線
100
AcDbLine
 10
92.4437519729687
 20
218.2390882381708
 30
0.0
 11
92.4437519729687
 21
214.2390882381708
 31
0.0
  0
LINE
  5
B34
330
1F
100
AcDbEntity
  8
細線
100
AcDbLine
 10
92.88621545713366
 20
218.2390882381708
 30
0.0
 11
92.88621545713366
 21
214.2390882381708
 31
0.0
  0
LINE
  5
B35
330
1F
100
AcDbEntity
  8
細線
100
AcDbLine
 10
93.44375197296869
 20
218.2390882381708
 30
0.0
 11
93.44375197296869
 21
214.2390882381708
 31
0.0
  0
LINE
  5
B36
330
1F
100
AcDbEntity
  8
細線
100
AcDbLine
 10
94.0617859617186
 20
218.2390882381708
 30
0.0
 11
94.0617859617186
 21
214.2390882381708
 31
0.0
  0
LINE
  5
B37
330
1F
100
AcDbEntity
  8
細線
100
AcDbLine
 10
94.6798199504685
 20
218.2390882381708
 30
0.0
 11
94.6798199504685
 21
214.2390882381708
 31
0.0
  0
LINE
  5
B38
330
1F
100
AcDbEntity
  8
細線
100
AcDbLine
 10
95.23735646630354
 20
218.2390882381708
 30
0.0
 11
95.23735646630354
 21
214.2390882381708
 31
0.0
  0
LINE
  5
B39
330
1F
100
AcDbEntity
  8
細線
100
AcDbLine
 10
95.67981995046849
 20
218.2390882381708
 30
0.0
 11
95.67981995046849
 21
214.2390882381708
 31
0.0
  0
LINE
  5
B3A
330
1F
100
AcDbEntity
  8
細線
100
AcDbLine
 10
95.9638989943089
 20
218.2390882381708
 30
0.0
 11
95.9638989943089
 21
214.2390882381708
 31
0.0
  0
LINE
  5
B3B
330
1F
100
AcDbEntity
  8
実線
100
AcDbLine
 10
96.0617859617186
 20
214.2390882381708
 30
0.0
 11
96.0617859617186
 21
218.2390882381708
 31
0.0
  0
LINE
  5
B3C
330
1F
100
AcDbEntity
  8
実線
100
AcDbLine
 10
92.06178596171859
 20
218.2390882381708
 30
0.0
 11
92.06178596171859
 21
214.2390882381708
 31
0.0
  0
LINE
  5
B3D
330
1F
100
AcDbEntity
  8
グラデーション
100
AcDbLine
 10
91.8617859617186
 20
212.1708350588913
 30
0.0
 11
93.3617859617186
 21
212.2390882381708
 31
0.0
  0
LINE
  5
B3E
330
1F
100
AcDbEntity
  8
グラデーション
100
AcDbLine
 10
91.8617859617186
 20
212.2390882381708
 30
0.0
 11
93.3617859617186
 21
212.1708350588913
 31
0.0
  0
LINE
  5
B3F
330
1F
100
AcDbEntity
  8
グラデーション
100
AcDbLine
 10
93.3617859617186
 20
212.1708350588913
 30
0.0
 11
91.8617859617186
 21
211.9666578331132
 31
0.0
  0
LWPOLYLINE
  5
B40
330
1F
100
AcDbEntity
  8
グラデーション
100
AcDbPolyline
 90
        2
 70
     0
 43
0.0
 10
93.3617859617186
 20
211.9666578331132
 10
91.8617859617186
 20
212.1708350588913
  0
LINE
  5
B41
330
1F
100
AcDbEntity
  8
グラデーション
100
AcDbLine
 10
91.8617859617186
 20
211.6282985289359
 30
0.0
 11
93.3617859617186
 21
211.9666578331132
 31
0.0
  0
LINE
  5
B42
330
1F
100
AcDbEntity
  8
グラデーション
100
AcDbLine
 10
91.8617859617186
 20
211.9666578331132
 30
0.0
 11
93.3617859617186
 21
211.6282985289359
 31
0.0
  0
LINE
  5
B43
330
1F
100
AcDbEntity
  8
グラデーション
100
AcDbLine
 10
93.3617859617186
 20
211.6282985289359
 30
0.0
 11
91.8617859617186
 21
211.1586439086404
 31
0.0
  0
LINE
  5
B44
330
1F
100
AcDbEntity
  8
グラデーション
100
AcDbLine
 10
93.3617859617186
 20
211.1586439086404
 30
0.0
 11
91.8617859617186
 21
211.6282985289359
 31
0.0
  0
LINE
  5
B45
330
1F
100
AcDbEntity
  8
グラデーション
100
AcDbLine
 10
91.8617859617186
 20
210.5617008998518
 30
0.0
 11
93.3617859617186
 21
211.1586439086404
 31
0.0
  0
LINE
  5
B46
330
1F
100
AcDbEntity
  8
グラデーション
100
AcDbLine
 10
91.8617859617186
 20
211.1586439086404
 30
0.0
 11
93.3617859617186
 21
210.5617008998518
 31
0.0
  0
LINE
  5
B47
330
1F
100
AcDbEntity
  8
グラデーション
100
AcDbLine
 10
93.3617859617186
 20
210.5617008998518
 30
0.0
 11
91.8617859617186
 21
209.8425624098446
 31
0.0
  0
LINE
  5
B48
330
1F
100
AcDbEntity
  8
グラデーション
100
AcDbLine
 10
93.3617859617186
 20
209.8425624098446
 30
0.0
 11
91.8617859617186
 21
210.5617008998518
 31
0.0
  0
LINE
  5
B49
330
1F
100
AcDbEntity
  8
グラデーション
100
AcDbLine
 10
91.8617859617186
 20
209.0073638746546
 30
0.0
 11
93.3617859617186
 21
209.8425624098446
 31
0.0
  0
LINE
  5
B4A
330
1F
100
AcDbEntity
  8
グラデーション
100
AcDbLine
 10
91.8617859617186
 20
209.8425624098446
 30
0.0
 11
93.3617859617186
 21
209.0073638746546
 31
0.0
  0
LINE
  5
B4B
330
1F
100
AcDbEntity
  8
グラデーション
100
AcDbLine
 10
93.3617859617186
 20
209.0073638746546
 30
0.0
 11
91.8617859617186
 21
208.0632309137013
 31
0.0
  0
LINE
  5
B4C
330
1F
100
AcDbEntity
  8
グラデーション
100
AcDbLine
 10
93.3617859617186
 20
208.0632309137013
 30
0.0
 11
91.8617859617186
 21
209.0073638746546
 31
0.0
  0
LINE
  5
B4D
330
1F
100
AcDbEntity
  8
グラデーション
100
AcDbLine
 10
91.8617859617186
 20
207.0182185365157
 30
0.0
 11
93.3617859617186
 21
208.0632309137013
 31
0.0
  0
LINE
  5
B4E
330
1F
100
AcDbEntity
  8
グラデーション
100
AcDbLine
 10
91.8617859617186
 20
208.0632309137013
 30
0.0
 11
93.3617859617186
 21
207.0182185365157
 31
0.0
  0
LINE
  5
B4F
330
1F
100
AcDbEntity
  8
グラデーション
100
AcDbLine
 10
93.3617859617186
 20
207.0182185365157
 30
0.0
 11
91.8617859617186
 21
205.8812424202389
 31
0.0
  0
LINE
  5
B50
330
1F
100
AcDbEntity
  8
グラデーション
100
AcDbLine
 10
93.3617859617186
 20
205.8812424202389
 30
0.0
 11
91.8617859617186
 21
207.0182185365157
 31
0.0
  0
LINE
  5
B51
330
1F
100
AcDbEntity
  8
グラデーション
100
AcDbLine
 10
85.8617859617186
 20
212.1708350588913
 30
0.0
 11
94.86178596171859
 21
212.1708350588913
 31
0.0
  0
LINE
  5
B52
330
1F
100
AcDbEntity
  8
グラデーション
100
AcDbLine
 10
85.8617859617186
 20
211.9666578331132
 30
0.0
 11
94.86178596171859
 21
211.9666578331132
 31
0.0
  0
LINE
  5
B53
330
1F
100
AcDbEntity
  8
グラデーション
100
AcDbLine
 10
85.8617859617186
 20
211.6282985289359
 30
0.0
 11
94.86178596171859
 21
211.6282985289359
 31
0.0
  0
LINE
  5
B54
330
1F
100
AcDbEntity
  8
グラデーション
100
AcDbLine
 10
85.8617859617186
 20
211.1586439086405
 30
0.0
 11
94.86178596171859
 21
211.1586439086405
 31
0.0
  0
LINE
  5
B55
330
1F
100
AcDbEntity
  8
グラデーション
100
AcDbLine
 10
85.8617859617186
 20
210.5617008998518
 30
0.0
 11
94.86178596171859
 21
210.5617008998518
 31
0.0
  0
LINE
  5
B56
330
1F
100
AcDbEntity
  8
グラデーション
100
AcDbLine
 10
85.8617859617186
 20
209.8425624098446
 30
0.0
 11
94.86178596171859
 21
209.8425624098446
 31
0.0
  0
LINE
  5
B57
330
1F
100
AcDbEntity
  8
グラデーション
100
AcDbLine
 10
85.8617859617186
 20
209.0073638746546
 30
0.0
 11
94.86178596171859
 21
209.0073638746546
 31
0.0
  0
LINE
  5
B58
330
1F
100
AcDbEntity
  8
グラデーション
100
AcDbLine
 10
85.8617859617186
 20
208.0632309137013
 30
0.0
 11
94.86178596171859
 21
208.0632309137013
 31
0.0
  0
LINE
  5
B59
330
1F
100
AcDbEntity
  8
グラデーション
100
AcDbLine
 10
85.8617859617186
 20
207.0182185365157
 30
0.0
 11
94.86178596171859
 21
207.0182185365157
 31
0.0
  0
LINE
  5
B5A
330
1F
100
AcDbEntity
  8
グラデーション
100
AcDbLine
 10
85.8617859617186
 20
205.8812424202389
 30
0.0
 11
94.86178596171859
 21
205.8812424202389
 31
0.0
  0
LINE
  5
B5B
330
1F
100
AcDbEntity
  8
実線
100
AcDbLine
 10
85.06178596171858
 20
212.2390882381708
 30
0.0
 11
95.66178596171861
 21
212.2390882381708
 31
0.0
  0
LINE
  5
B5C
330
1F
100
AcDbEntity
  8
実線
100
AcDbLine
 10
96.0617859617186
 20
214.2390882381708
 30
0.0
 11
92.06178596171859
 21
214.2390882381708
 31
0.0
  0
LINE
  5
B5D
330
1F
100
AcDbEntity
  8
実線
100
AcDbLine
 10
92.5617859617186
 20
213.7390882381708
 30
0.0
 11
95.56178596171859
 21
213.7390882381708
 31
0.0
  0
LINE
  5
B5E
330
1F
100
AcDbEntity
  8
グラデーション
100
AcDbLine
 10
90.36178596171859
 20
210.5617008998518
 30
0.0
 11
91.86178596171858
 21
211.1586439086405
 31
0.0
  0
LINE
  5
B5F
330
1F
100
AcDbEntity
  8
グラデーション
100
AcDbLine
 10
90.36178596171859
 20
211.1586439086405
 30
0.0
 11
91.86178596171858
 21
210.5617008998518
 31
0.0
  0
LINE
  5
B60
330
1F
100
AcDbEntity
  8
グラデーション
100
AcDbLine
 10
88.86178596171859
 20
210.5617008998518
 30
0.0
 11
90.36178596171859
 21
211.1586439086404
 31
0.0
  0
LINE
  5
B61
330
1F
100
AcDbEntity
  8
グラデーション
100
AcDbLine
 10
88.86178596171859
 20
211.1586439086404
 30
0.0
 11
90.36178596171859
 21
210.5617008998518
 31
0.0
  0
LINE
  5
B62
330
1F
100
AcDbEntity
  8
グラデーション
100
AcDbLine
 10
87.36178596171859
 20
210.5617008998518
 30
0.0
 11
88.86178596171857
 21
211.1586439086405
 31
0.0
  0
LINE
  5
B63
330
1F
100
AcDbEntity
  8
グラデーション
100
AcDbLine
 10
87.36178596171859
 20
211.1586439086405
 30
0.0
 11
88.86178596171857
 21
210.5617008998518
 31
0.0
  0
LINE
  5
B64
330
1F
100
AcDbEntity
  8
グラデーション
100
AcDbLine
 10
85.8617859617186
 20
211.1586439086405
 30
0.0
 11
87.36178596171859
 21
210.5617008998518
 31
0.0
  0
LINE
  5
B65
330
1F
100
AcDbEntity
  8
グラデーション
100
AcDbLine
 10
85.8617859617186
 20
210.5617008998518
 30
0.0
 11
87.36178596171859
 21
211.1586439086405
 31
0.0
  0
LINE
  5
B66
330
1F
100
AcDbEntity
  8
グラデーション
100
AcDbLine
 10
88.86178596171857
 20
210.5617008998518
 30
0.0
 11
87.36178596171859
 21
209.8425624098446
 31
0.0
  0
LINE
  5
B67
330
1F
100
AcDbEntity
  8
グラデーション
100
AcDbLine
 10
88.86178596171857
 20
209.8425624098446
 30
0.0
 11
87.36178596171859
 21
210.5617008998518
 31
0.0
  0
LINE
  5
B68
330
1F
100
AcDbEntity
  8
グラデーション
100
AcDbLine
 10
87.36178596171859
 20
209.0073638746546
 30
0.0
 11
88.86178596171857
 21
209.8425624098446
 31
0.0
  0
LINE
  5
B69
330
1F
100
AcDbEntity
  8
グラデーション
100
AcDbLine
 10
87.36178596171859
 20
209.8425624098446
 30
0.0
 11
88.86178596171857
 21
209.0073638746546
 31
0.0
  0
LINE
  5
B6A
330
1F
100
AcDbEntity
  8
グラデーション
100
AcDbLine
 10
88.86178596171857
 20
209.0073638746546
 30
0.0
 11
87.36178596171859
 21
208.0632309137013
 31
0.0
  0
LINE
  5
B6B
330
1F
100
AcDbEntity
  8
グラデーション
100
AcDbLine
 10
88.86178596171857
 20
208.0632309137013
 30
0.0
 11
87.36178596171859
 21
209.0073638746546
 31
0.0
  0
LINE
  5
B6C
330
1F
100
AcDbEntity
  8
グラデーション
100
AcDbLine
 10
87.36178596171859
 20
207.0182185365157
 30
0.0
 11
88.86178596171857
 21
208.0632309137013
 31
0.0
  0
LINE
  5
B6D
330
1F
100
AcDbEntity
  8
グラデーション
100
AcDbLine
 10
87.36178596171859
 20
208.0632309137013
 30
0.0
 11
88.86178596171857
 21
207.0182185365157
 31
0.0
  0
LINE
  5
B6E
330
1F
100
AcDbEntity
  8
グラデーション
100
AcDbLine
 10
88.86178596171857
 20
207.0182185365157
 30
0.0
 11
87.36178596171859
 21
205.8812424202389
 31
0.0
  0
LINE
  5
B6F
330
1F
100
AcDbEntity
  8
グラデーション
100
AcDbLine
 10
88.86178596171857
 20
205.8812424202389
 30
0.0
 11
87.36178596171859
 21
207.0182185365157
 31
0.0
  0
LINE
  5
B70
330
1F
100
AcDbEntity
  8
グラデーション
100
AcDbLine
 10
87.36178596171859
 20
207.0182185365157
 30
0.0
 11
85.8617859617186
 21
205.8812424202389
 31
0.0
  0
LINE
  5
B71
330
1F
100
AcDbEntity
  8
グラデーション
100
AcDbLine
 10
85.8617859617186
 20
208.0632309137013
 30
0.0
 11
87.36178596171859
 21
207.0182185365157
 31
0.0
  0
LINE
  5
B72
330
1F
100
AcDbEntity
  8
グラデーション
100
AcDbLine
 10
87.36178596171859
 20
209.0073638746546
 30
0.0
 11
85.8617859617186
 21
208.0632309137013
 31
0.0
  0
LINE
  5
B73
330
1F
100
AcDbEntity
  8
グラデーション
100
AcDbLine
 10
85.8617859617186
 20
209.8425624098446
 30
0.0
 11
87.36178596171859
 21
209.0073638746546
 31
0.0
  0
LINE
  5
B74
330
1F
100
AcDbEntity
  8
グラデーション
100
AcDbLine
 10
87.36178596171859
 20
210.5617008998518
 30
0.0
 11
85.8617859617186
 21
209.8425624098446
 31
0.0
  0
LINE
  5
B75
330
1F
100
AcDbEntity
  8
グラデーション
100
AcDbLine
 10
87.36178596171859
 20
209.8425624098446
 30
0.0
 11
85.8617859617186
 21
210.5617008998518
 31
0.0
  0
LINE
  5
B76
330
1F
100
AcDbEntity
  8
グラデーション
100
AcDbLine
 10
85.8617859617186
 20
209.0073638746546
 30
0.0
 11
87.36178596171859
 21
209.8425624098446
 31
0.0
  0
LINE
  5
B77
330
1F
100
AcDbEntity
  8
グラデーション
100
AcDbLine
 10
87.36178596171859
 20
208.0632309137013
 30
0.0
 11
85.8617859617186
 21
209.0073638746546
 31
0.0
  0
LINE
  5
B78
330
1F
100
AcDbEntity
  8
グラデーション
100
AcDbLine
 10
85.8617859617186
 20
207.0182185365157
 30
0.0
 11
87.36178596171859
 21
208.0632309137013
 31
0.0
  0
LINE
  5
B79
330
1F
100
AcDbEntity
  8
グラデーション
100
AcDbLine
 10
87.36178596171859
 20
205.8812424202389
 30
0.0
 11
85.8617859617186
 21
207.0182185365157
 31
0.0
  0
LINE
  5
B7A
330
1F
100
AcDbEntity
  8
グラデーション
100
AcDbLine
 10
91.86178596171858
 20
210.5617008998518
 30
0.0
 11
90.36178596171859
 21
209.8425624098446
 31
0.0
  0
LINE
  5
B7B
330
1F
100
AcDbEntity
  8
グラデーション
100
AcDbLine
 10
91.86178596171858
 20
209.8425624098446
 30
0.0
 11
90.36178596171859
 21
210.5617008998518
 31
0.0
  0
LINE
  5
B7C
330
1F
100
AcDbEntity
  8
グラデーション
100
AcDbLine
 10
90.36178596171859
 20
209.0073638746546
 30
0.0
 11
91.86178596171858
 21
209.8425624098446
 31
0.0
  0
LINE
  5
B7D
330
1F
100
AcDbEntity
  8
グラデーション
100
AcDbLine
 10
90.36178596171859
 20
209.8425624098446
 30
0.0
 11
91.86178596171858
 21
209.0073638746546
 31
0.0
  0
LINE
  5
B7E
330
1F
100
AcDbEntity
  8
グラデーション
100
AcDbLine
 10
91.86178596171858
 20
209.0073638746546
 30
0.0
 11
90.36178596171859
 21
208.0632309137013
 31
0.0
  0
LINE
  5
B7F
330
1F
100
AcDbEntity
  8
グラデーション
100
AcDbLine
 10
91.86178596171858
 20
208.0632309137013
 30
0.0
 11
90.36178596171859
 21
209.0073638746546
 31
0.0
  0
LINE
  5
B80
330
1F
100
AcDbEntity
  8
グラデーション
100
AcDbLine
 10
90.36178596171859
 20
207.0182185365157
 30
0.0
 11
91.86178596171858
 21
208.0632309137013
 31
0.0
  0
LINE
  5
B81
330
1F
100
AcDbEntity
  8
グラデーション
100
AcDbLine
 10
90.36178596171859
 20
208.0632309137013
 30
0.0
 11
91.86178596171858
 21
207.0182185365157
 31
0.0
  0
LINE
  5
B82
330
1F
100
AcDbEntity
  8
グラデーション
100
AcDbLine
 10
91.86178596171858
 20
207.0182185365157
 30
0.0
 11
90.36178596171859
 21
205.8812424202389
 31
0.0
  0
LINE
  5
B83
330
1F
100
AcDbEntity
  8
グラデーション
100
AcDbLine
 10
91.86178596171858
 20
205.8812424202389
 30
0.0
 11
90.36178596171859
 21
207.0182185365157
 31
0.0
  0
LINE
  5
B84
330
1F
100
AcDbEntity
  8
グラデーション
100
AcDbLine
 10
90.36178596171859
 20
210.5617008998518
 30
0.0
 11
88.86178596171859
 21
209.8425624098446
 31
0.0
  0
LINE
  5
B85
330
1F
100
AcDbEntity
  8
グラデーション
100
AcDbLine
 10
90.36178596171859
 20
209.8425624098446
 30
0.0
 11
88.86178596171859
 21
210.5617008998518
 31
0.0
  0
LINE
  5
B86
330
1F
100
AcDbEntity
  8
グラデーション
100
AcDbLine
 10
88.86178596171859
 20
209.0073638746546
 30
0.0
 11
90.36178596171859
 21
209.8425624098446
 31
0.0
  0
LINE
  5
B87
330
1F
100
AcDbEntity
  8
グラデーション
100
AcDbLine
 10
88.86178596171859
 20
209.8425624098446
 30
0.0
 11
90.36178596171859
 21
209.0073638746546
 31
0.0
  0
LINE
  5
B88
330
1F
100
AcDbEntity
  8
グラデーション
100
AcDbLine
 10
90.36178596171859
 20
209.0073638746546
 30
0.0
 11
88.86178596171859
 21
208.0632309137013
 31
0.0
  0
LINE
  5
B89
330
1F
100
AcDbEntity
  8
グラデーション
100
AcDbLine
 10
90.36178596171859
 20
208.0632309137013
 30
0.0
 11
88.86178596171859
 21
209.0073638746546
 31
0.0
  0
LINE
  5
B8A
330
1F
100
AcDbEntity
  8
グラデーション
100
AcDbLine
 10
88.86178596171859
 20
207.0182185365157
 30
0.0
 11
90.36178596171859
 21
208.0632309137013
 31
0.0
  0
LINE
  5
B8B
330
1F
100
AcDbEntity
  8
グラデーション
100
AcDbLine
 10
88.86178596171859
 20
208.0632309137013
 30
0.0
 11
90.36178596171859
 21
207.0182185365157
 31
0.0
  0
LINE
  5
B8C
330
1F
100
AcDbEntity
  8
グラデーション
100
AcDbLine
 10
90.36178596171859
 20
207.0182185365157
 30
0.0
 11
88.86178596171859
 21
205.8812424202389
 31
0.0
  0
LINE
  5
B8D
330
1F
100
AcDbEntity
  8
グラデーション
100
AcDbLine
 10
90.36178596171859
 20
205.8812424202389
 30
0.0
 11
88.86178596171859
 21
207.0182185365157
 31
0.0
  0
LINE
  5
B8E
330
1F
100
AcDbEntity
  8
グラデーション
100
AcDbLine
 10
87.36178596171859
 20
212.1708350588913
 30
0.0
 11
88.86178596171857
 21
212.2390882381708
 31
0.0
  0
LINE
  5
B8F
330
1F
100
AcDbEntity
  8
グラデーション
100
AcDbLine
 10
87.36178596171859
 20
212.2390882381708
 30
0.0
 11
88.86178596171857
 21
212.1708350588913
 31
0.0
  0
LINE
  5
B90
330
1F
100
AcDbEntity
  8
グラデーション
100
AcDbLine
 10
88.86178596171857
 20
212.1708350588913
 30
0.0
 11
87.36178596171859
 21
211.9666578331132
 31
0.0
  0
LWPOLYLINE
  5
B91
330
1F
100
AcDbEntity
  8
グラデーション
100
AcDbPolyline
 90
        2
 70
     0
 43
0.0
 10
88.86178596171857
 20
211.9666578331132
 10
87.36178596171859
 20
212.1708350588913
  0
LINE
  5
B92
330
1F
100
AcDbEntity
  8
グラデーション
100
AcDbLine
 10
87.36178596171859
 20
211.6282985289359
 30
0.0
 11
88.86178596171857
 21
211.9666578331132
 31
0.0
  0
LINE
  5
B93
330
1F
100
AcDbEntity
  8
グラデーション
100
AcDbLine
 10
87.36178596171859
 20
211.9666578331132
 30
0.0
 11
88.86178596171857
 21
211.6282985289359
 31
0.0
  0
LINE
  5
B94
330
1F
100
AcDbEntity
  8
グラデーション
100
AcDbLine
 10
88.86178596171857
 20
211.6282985289359
 30
0.0
 11
87.36178596171859
 21
211.1586439086405
 31
0.0
  0
LINE
  5
B95
330
1F
100
AcDbEntity
  8
グラデーション
100
AcDbLine
 10
88.86178596171857
 20
211.1586439086405
 30
0.0
 11
87.36178596171859
 21
211.6282985289359
 31
0.0
  0
LWPOLYLINE
  5
B96
330
1F
100
AcDbEntity
  8
グラデーション
100
AcDbPolyline
 90
        2
 70
     0
 43
0.0
 10
87.36178596171859
 20
211.9666578331132
 10
85.8617859617186
 20
212.1708350588913
  0
LINE
  5
B97
330
1F
100
AcDbEntity
  8
グラデーション
100
AcDbLine
 10
87.36178596171859
 20
211.6282985289359
 30
0.0
 11
85.8617859617186
 21
211.1586439086405
 31
0.0
  0
LINE
  5
B98
330
1F
100
AcDbEntity
  8
グラデーション
100
AcDbLine
 10
85.8617859617186
 20
211.9666578331132
 30
0.0
 11
87.36178596171859
 21
211.6282985289359
 31
0.0
  0
LINE
  5
B99
330
1F
100
AcDbEntity
  8
グラデーション
100
AcDbLine
 10
87.36178596171859
 20
212.1708350588913
 30
0.0
 11
85.8617859617186
 21
211.9666578331132
 31
0.0
  0
LINE
  5
B9A
330
1F
100
AcDbEntity
  8
グラデーション
100
AcDbLine
 10
85.8617859617186
 20
212.2390882381708
 30
0.0
 11
87.36178596171859
 21
212.1708350588913
 31
0.0
  0
LINE
  5
B9B
330
1F
100
AcDbEntity
  8
グラデーション
100
AcDbLine
 10
85.8617859617186
 20
212.1708350588913
 30
0.0
 11
87.36178596171859
 21
212.2390882381708
 31
0.0
  0
LINE
  5
B9C
330
1F
100
AcDbEntity
  8
グラデーション
100
AcDbLine
 10
85.8617859617186
 20
211.6282985289359
 30
0.0
 11
87.36178596171859
 21
211.9666578331132
 31
0.0
  0
LINE
  5
B9D
330
1F
100
AcDbEntity
  8
グラデーション
100
AcDbLine
 10
87.36178596171859
 20
211.1586439086405
 30
0.0
 11
85.8617859617186
 21
211.6282985289359
 31
0.0
  0
LINE
  5
B9E
330
1F
100
AcDbEntity
  8
グラデーション
100
AcDbLine
 10
90.36178596171859
 20
212.1708350588913
 30
0.0
 11
91.86178596171858
 21
212.2390882381708
 31
0.0
  0
LINE
  5
B9F
330
1F
100
AcDbEntity
  8
グラデーション
100
AcDbLine
 10
90.36178596171858
 20
212.2390882381708
 30
0.0
 11
91.86178596171858
 21
212.1708350588913
 31
0.0
  0
LINE
  5
BA0
330
1F
100
AcDbEntity
  8
グラデーション
100
AcDbLine
 10
91.86178596171858
 20
212.1708350588913
 30
0.0
 11
90.36178596171859
 21
211.9666578331132
 31
0.0
  0
LWPOLYLINE
  5
BA1
330
1F
100
AcDbEntity
  8
グラデーション
100
AcDbPolyline
 90
        2
 70
     0
 43
0.0
 10
91.86178596171858
 20
211.9666578331132
 10
90.36178596171859
 20
212.1708350588913
  0
LINE
  5
BA2
330
1F
100
AcDbEntity
  8
グラデーション
100
AcDbLine
 10
90.36178596171859
 20
211.6282985289359
 30
0.0
 11
91.86178596171858
 21
211.9666578331132
 31
0.0
  0
LINE
  5
BA3
330
1F
100
AcDbEntity
  8
グラデーション
100
AcDbLine
 10
90.36178596171859
 20
211.9666578331132
 30
0.0
 11
91.86178596171858
 21
211.6282985289359
 31
0.0
  0
LINE
  5
BA4
330
1F
100
AcDbEntity
  8
グラデーション
100
AcDbLine
 10
91.86178596171858
 20
211.6282985289359
 30
0.0
 11
90.36178596171859
 21
211.1586439086405
 31
0.0
  0
LINE
  5
BA5
330
1F
100
AcDbEntity
  8
グラデーション
100
AcDbLine
 10
91.86178596171858
 20
211.1586439086405
 30
0.0
 11
90.36178596171859
 21
211.6282985289359
 31
0.0
  0
LINE
  5
BA6
330
1F
100
AcDbEntity
  8
グラデーション
100
AcDbLine
 10
88.86178596171859
 20
212.1708350588913
 30
0.0
 11
90.36178596171859
 21
212.2390882381708
 31
0.0
  0
LINE
  5
BA7
330
1F
100
AcDbEntity
  8
グラデーション
100
AcDbLine
 10
88.86178596171859
 20
212.2390882381708
 30
0.0
 11
90.36178596171859
 21
212.1708350588913
 31
0.0
  0
LINE
  5
BA8
330
1F
100
AcDbEntity
  8
グラデーション
100
AcDbLine
 10
90.36178596171859
 20
212.1708350588913
 30
0.0
 11
88.86178596171859
 21
211.9666578331132
 31
0.0
  0
LWPOLYLINE
  5
BA9
330
1F
100
AcDbEntity
  8
グラデーション
100
AcDbPolyline
 90
        2
 70
     0
 43
0.0
 10
90.36178596171859
 20
211.9666578331132
 10
88.86178596171859
 20
212.1708350588913
  0
LINE
  5
BAA
330
1F
100
AcDbEntity
  8
グラデーション
100
AcDbLine
 10
88.86178596171859
 20
211.6282985289359
 30
0.0
 11
90.36178596171859
 21
211.9666578331132
 31
0.0
  0
LINE
  5
BAB
330
1F
100
AcDbEntity
  8
グラデーション
100
AcDbLine
 10
88.86178596171859
 20
211.9666578331132
 30
0.0
 11
90.36178596171859
 21
211.6282985289359
 31
0.0
  0
LINE
  5
BAC
330
1F
100
AcDbEntity
  8
グラデーション
100
AcDbLine
 10
90.36178596171859
 20
211.6282985289359
 30
0.0
 11
88.86178596171859
 21
211.1586439086404
 31
0.0
  0
LINE
  5
BAD
330
1F
100
AcDbEntity
  8
グラデーション
100
AcDbLine
 10
90.36178596171859
 20
211.1586439086404
 30
0.0
 11
88.86178596171859
 21
211.6282985289359
 31
0.0
  0
LINE
  5
BAE
330
1F
100
AcDbEntity
  8
実線
100
AcDbLine
 10
92.06178596171859
 20
214.2390882381708
 30
0.0
 11
92.5617859617186
 21
213.7390882381708
 31
0.0
  0
LINE
  5
BAF
330
1F
100
AcDbEntity
  8
グラデーション
100
AcDbLine
 10
93.3617859617186
 20
210.5617008998518
 30
0.0
 11
94.86178596171859
 21
211.1586439086405
 31
0.0
  0
LINE
  5
BB0
330
1F
100
AcDbEntity
  8
グラデーション
100
AcDbLine
 10
93.3617859617186
 20
211.1586439086405
 30
0.0
 11
94.86178596171859
 21
210.5617008998518
 31
0.0
  0
LINE
  5
BB1
330
1F
100
AcDbEntity
  8
グラデーション
100
AcDbLine
 10
94.86178596171859
 20
210.5617008998518
 30
0.0
 11
93.3617859617186
 21
209.8425624098446
 31
0.0
  0
LINE
  5
BB2
330
1F
100
AcDbEntity
  8
グラデーション
100
AcDbLine
 10
94.86178596171859
 20
209.8425624098446
 30
0.0
 11
93.3617859617186
 21
210.5617008998518
 31
0.0
  0
LINE
  5
BB3
330
1F
100
AcDbEntity
  8
グラデーション
100
AcDbLine
 10
93.3617859617186
 20
209.0073638746546
 30
0.0
 11
94.86178596171859
 21
209.8425624098446
 31
0.0
  0
LINE
  5
BB4
330
1F
100
AcDbEntity
  8
グラデーション
100
AcDbLine
 10
93.3617859617186
 20
209.8425624098446
 30
0.0
 11
94.86178596171859
 21
209.0073638746546
 31
0.0
  0
LINE
  5
BB5
330
1F
100
AcDbEntity
  8
グラデーション
100
AcDbLine
 10
94.86178596171859
 20
209.0073638746546
 30
0.0
 11
93.3617859617186
 21
208.0632309137013
 31
0.0
  0
LINE
  5
BB6
330
1F
100
AcDbEntity
  8
グラデーション
100
AcDbLine
 10
94.86178596171859
 20
208.0632309137013
 30
0.0
 11
93.3617859617186
 21
209.0073638746546
 31
0.0
  0
LINE
  5
BB7
330
1F
100
AcDbEntity
  8
グラデーション
100
AcDbLine
 10
93.3617859617186
 20
207.0182185365157
 30
0.0
 11
94.86178596171859
 21
208.0632309137013
 31
0.0
  0
LINE
  5
BB8
330
1F
100
AcDbEntity
  8
グラデーション
100
AcDbLine
 10
93.3617859617186
 20
208.0632309137013
 30
0.0
 11
94.86178596171859
 21
207.0182185365157
 31
0.0
  0
LINE
  5
BB9
330
1F
100
AcDbEntity
  8
グラデーション
100
AcDbLine
 10
94.86178596171859
 20
207.0182185365157
 30
0.0
 11
93.3617859617186
 21
205.8812424202389
 31
0.0
  0
LINE
  5
BBA
330
1F
100
AcDbEntity
  8
グラデーション
100
AcDbLine
 10
94.86178596171859
 20
205.8812424202389
 30
0.0
 11
93.3617859617186
 21
207.0182185365157
 31
0.0
  0
LINE
  5
BBB
330
1F
100
AcDbEntity
  8
実線
100
AcDbLine
 10
96.06178596171861
 20
211.6390882381708
 30
0.0
 11
99.46178596171861
 21
211.6390882381708
 31
0.0
  0
LINE
  5
BBC
330
1F
100
AcDbEntity
  8
グラデーション
100
AcDbLine
 10
93.3617859617186
 20
212.1708350588913
 30
0.0
 11
94.86178596171859
 21
212.2390882381708
 31
0.0
  0
LINE
  5
BBD
330
1F
100
AcDbEntity
  8
グラデーション
100
AcDbLine
 10
93.36178596171858
 20
212.2390882381708
 30
0.0
 11
94.86178596171859
 21
212.1708350588913
 31
0.0
  0
LINE
  5
BBE
330
1F
100
AcDbEntity
  8
グラデーション
100
AcDbLine
 10
94.86178596171859
 20
212.1708350588913
 30
0.0
 11
93.3617859617186
 21
211.9666578331132
 31
0.0
  0
LWPOLYLINE
  5
BBF
330
1F
100
AcDbEntity
  8
グラデーション
100
AcDbPolyline
 90
        2
 70
     0
 43
0.0
 10
94.86178596171859
 20
211.9666578331132
 10
93.3617859617186
 20
212.1708350588913
  0
LINE
  5
BC0
330
1F
100
AcDbEntity
  8
グラデーション
100
AcDbLine
 10
93.3617859617186
 20
211.6282985289359
 30
0.0
 11
94.86178596171859
 21
211.9666578331132
 31
0.0
  0
LINE
  5
BC1
330
1F
100
AcDbEntity
  8
グラデーション
100
AcDbLine
 10
93.3617859617186
 20
211.9666578331132
 30
0.0
 11
94.86178596171859
 21
211.6282985289359
 31
0.0
  0
LINE
  5
BC2
330
1F
100
AcDbEntity
  8
グラデーション
100
AcDbLine
 10
94.86178596171859
 20
211.6282985289359
 30
0.0
 11
93.3617859617186
 21
211.1586439086405
 31
0.0
  0
LINE
  5
BC3
330
1F
100
AcDbEntity
  8
グラデーション
100
AcDbLine
 10
94.86178596171859
 20
211.1586439086405
 30
0.0
 11
93.3617859617186
 21
211.6282985289359
 31
0.0
  0
LINE
  5
BC4
330
1F
100
AcDbEntity
  8
実線
100
AcDbLine
 10
95.66178596171861
 20
212.2390882381708
 30
0.0
 11
96.06178596171861
 21
211.6390882381708
 31
0.0
  0
LINE
  5
BC5
330
1F
100
AcDbEntity
  8
細線
100
AcDbLine
 10
94.66178596171859
 20
213.2390882381708
 30
0.0
 11
94.66178596171859
 21
212.2390882381708
 31
0.0
  0
LINE
  5
BC6
330
1F
100
AcDbEntity
  8
細線
100
AcDbLine
 10
93.4617859617186
 20
213.2390882381708
 30
0.0
 11
93.4617859617186
 21
212.2390882381708
 31
0.0
  0
LINE
  5
BC7
330
1F
100
AcDbEntity
  8
実線
100
AcDbLine
 10
93.06178596171859
 20
213.2390882381708
 30
0.0
 11
95.0617859617186
 21
213.2390882381708
 31
0.0
  0
LINE
  5
BC8
330
1F
100
AcDbEntity
  8
実線
100
AcDbLine
 10
93.06178596171859
 20
213.2390882381708
 30
0.0
 11
93.06178596171859
 21
212.2390882381708
 31
0.0
  0
LINE
  5
BC9
330
1F
100
AcDbEntity
  8
実線
100
AcDbLine
 10
93.4617859617186
 20
213.7390882381708
 30
0.0
 11
93.4617859617186
 21
213.2390882381708
 31
0.0
  0
LINE
  5
BCA
330
1F
100
AcDbEntity
  8
実線
100
AcDbLine
 10
94.66178596171859
 20
213.7390882381708
 30
0.0
 11
94.66178596171859
 21
213.2390882381708
 31
0.0
  0
LINE
  5
BCB
330
1F
100
AcDbEntity
  8
実線
100
AcDbLine
 10
95.0617859617186
 20
213.2390882381708
 30
0.0
 11
95.0617859617186
 21
212.2390882381708
 31
0.0
  0
LINE
  5
BCC
330
1F
100
AcDbEntity
  8
実線
100
AcDbLine
 10
95.56178596171859
 20
213.7390882381708
 30
0.0
 11
96.0617859617186
 21
214.2390882381708
 31
0.0
  0
LINE
  5
BCD
330
1F
100
AcDbEntity
  8
実線
100
AcDbLine
 10
92.06178596171859
 20
218.2390882381708
 30
0.0
 11
96.0617859617186
 21
218.2390882381708
 31
0.0
  0
LINE
  5
BCE
330
1F
100
AcDbEntity
  8
実線
100
AcDbLine
 10
95.56178596171859
 20
218.7390882381708
 30
0.0
 11
92.5617859617186
 21
218.7390882381708
 31
0.0
  0
LINE
  5
BCF
330
1F
100
AcDbEntity
  8
実線
100
AcDbLine
 10
92.5617859617186
 20
218.7390882381708
 30
0.0
 11
92.06178596171859
 21
218.2390882381708
 31
0.0
  0
LINE
  5
BD0
330
1F
100
AcDbEntity
  8
実線
100
AcDbLine
 10
96.0617859617186
 20
218.2390882381708
 30
0.0
 11
95.56178596171859
 21
218.7390882381708
 31
0.0
  0
LINE
  5
BD1
330
1F
100
AcDbEntity
  8
実線
100
AcDbLine
 10
111.3617859617186
 20
213.2390882381708
 30
0.0
 11
111.3617859617186
 21
217.2390882381708
 31
0.0
  0
LINE
  5
BD2
330
1F
100
AcDbEntity
  8
細線
100
AcDbLine
 10
111.2638989943089
 20
217.2390882381708
 30
0.0
 11
111.2638989943089
 21
213.2390882381708
 31
0.0
  0
LINE
  5
BD3
330
1F
100
AcDbEntity
  8
細線
100
AcDbLine
 10
110.9798199504685
 20
217.2390882381708
 30
0.0
 11
110.9798199504685
 21
213.2390882381708
 31
0.0
  0
LINE
  5
BD4
330
1F
100
AcDbEntity
  8
実線
100
AcDbLine
 10
107.3617859617186
 20
217.2390882381708
 30
0.0
 11
107.3617859617186
 21
213.2390882381708
 31
0.0
  0
LINE
  5
BD5
330
1F
100
AcDbEntity
  8
細線
100
AcDbLine
 10
110.5373564663035
 20
217.2390882381708
 30
0.0
 11
110.5373564663035
 21
213.2390882381708
 31
0.0
  0
LINE
  5
BD6
330
1F
100
AcDbEntity
  8
細線
100
AcDbLine
 10
109.9798199504685
 20
217.2390882381708
 30
0.0
 11
109.9798199504685
 21
213.2390882381708
 31
0.0
  0
LINE
  5
BD7
330
1F
100
AcDbEntity
  8
細線
100
AcDbLine
 10
109.3617859617186
 20
217.2390882381708
 30
0.0
 11
109.3617859617186
 21
213.2390882381708
 31
0.0
  0
LINE
  5
BD8
330
1F
100
AcDbEntity
  8
細線
100
AcDbLine
 10
108.7437519729687
 20
217.2390882381708
 30
0.0
 11
108.7437519729687
 21
213.2390882381708
 31
0.0
  0
LINE
  5
BD9
330
1F
100
AcDbEntity
  8
細線
100
AcDbLine
 10
108.1862154571336
 20
217.2390882381708
 30
0.0
 11
108.1862154571336
 21
213.2390882381708
 31
0.0
  0
LINE
  5
BDA
330
1F
100
AcDbEntity
  8
細線
100
AcDbLine
 10
107.7437519729687
 20
217.2390882381708
 30
0.0
 11
107.7437519729687
 21
213.2390882381708
 31
0.0
  0
LINE
  5
BDB
330
1F
100
AcDbEntity
  8
細線
100
AcDbLine
 10
107.4596729291283
 20
217.2390882381708
 30
0.0
 11
107.4596729291283
 21
213.2390882381708
 31
0.0
  0
LINE
  5
BDC
330
1F
100
AcDbEntity
  8
実線
100
AcDbLine
 10
107.8617859617186
 20
212.7390882381708
 30
0.0
 11
110.8617859617186
 21
212.7390882381708
 31
0.0
  0
LINE
  5
BDD
330
1F
100
AcDbEntity
  8
実線
100
AcDbLine
 10
111.3617859617186
 20
213.2390882381708
 30
0.0
 11
107.3617859617186
 21
213.2390882381708
 31
0.0
  0
LINE
  5
BDE
330
1F
100
AcDbEntity
  8
実線
100
AcDbLine
 10
108.3617859617186
 20
212.2390882381708
 30
0.0
 11
110.3617859617186
 21
212.2390882381708
 31
0.0
  0
LINE
  5
BDF
330
1F
100
AcDbEntity
  8
グラデーション
100
AcDbLine
 10
108.3617859617186
 20
211.1751008825963
 30
0.0
 11
110.3617859617186
 21
211.1751008825963
 31
0.0
  0
LINE
  5
BE0
330
1F
100
AcDbEntity
  8
グラデーション
100
AcDbLine
 10
108.3617859617186
 20
210.9836847334293
 30
0.0
 11
110.3617859617186
 21
210.9836847334293
 31
0.0
  0
LINE
  5
BE1
330
1F
100
AcDbEntity
  8
グラデーション
100
AcDbLine
 10
108.3617859617186
 20
210.6664728857631
 30
0.0
 11
110.3617859617186
 21
210.6664728857631
 31
0.0
  0
LINE
  5
BE2
330
1F
100
AcDbEntity
  8
グラデーション
100
AcDbLine
 10
108.3617859617186
 20
210.2261716792361
 30
0.0
 11
110.3617859617186
 21
210.2261716792361
 31
0.0
  0
LINE
  5
BE3
330
1F
100
AcDbEntity
  8
グラデーション
100
AcDbLine
 10
108.3617859617186
 20
209.6665376084967
 30
0.0
 11
110.3617859617186
 21
209.6665376084967
 31
0.0
  0
LINE
  5
BE4
330
1F
100
AcDbEntity
  8
グラデーション
100
AcDbLine
 10
108.3617859617186
 20
208.992345274115
 30
0.0
 11
110.3617859617186
 21
208.992345274115
 31
0.0
  0
LINE
  5
BE5
330
1F
100
AcDbEntity
  8
グラデーション
100
AcDbLine
 10
108.3617859617186
 20
208.2093466473744
 30
0.0
 11
110.3617859617186
 21
208.2093466473744
 31
0.0
  0
LINE
  5
BE6
330
1F
100
AcDbEntity
  8
グラデーション
100
AcDbLine
 10
108.3617859617186
 20
207.3242219964807
 30
0.0
 11
110.3617859617186
 21
207.3242219964807
 31
0.0
  0
LINE
  5
BE7
330
1F
100
AcDbEntity
  8
グラデーション
100
AcDbLine
 10
108.3617859617186
 20
206.3445228928691
 30
0.0
 11
110.3617859617186
 21
206.3445228928691
 31
0.0
  0
LINE
  5
BE8
330
1F
100
AcDbEntity
  8
グラデーション
100
AcDbLine
 10
108.3617859617186
 20
205.2786077838596
 30
0.0
 11
110.3617859617186
 21
205.2786077838596
 31
0.0
  0
LINE
  5
BE9
330
1F
100
AcDbEntity
  8
実線
100
AcDbLine
 10
108.3617859617186
 20
211.2390882381708
 30
0.0
 11
110.3617859617186
 21
211.2390882381708
 31
0.0
  0
LINE
  5
BEA
330
1F
100
AcDbEntity
  8
実線
100
AcDbLine
 10
108.3617859617186
 20
211.2390882381708
 30
0.0
 11
107.8617859617186
 21
210.7390882381708
 31
0.0
  0
LINE
  5
BEB
330
1F
100
AcDbEntity
  8
実線
100
AcDbLine
 10
103.8617859617186
 20
210.7390882381708
 30
0.0
 11
107.8617859617186
 21
210.7390882381708
 31
0.0
  0
LINE
  5
BEC
330
1F
100
AcDbEntity
  8
実線
100
AcDbLine
 10
103.8617859617186
 20
209.9390882381708
 30
0.0
 11
103.8617859617186
 21
209.9390882381708
 31
0.0
  0
LINE
  5
BED
330
1F
100
AcDbEntity
  8
実線
100
AcDbLine
 10
107.3617859617186
 20
213.2390882381708
 30
0.0
 11
107.8617859617186
 21
212.7390882381708
 31
0.0
  0
LINE
  5
BEE
330
1F
100
AcDbEntity
  8
実線
100
AcDbLine
 10
108.7617859617186
 20
212.7390882381708
 30
0.0
 11
108.7617859617186
 21
212.2390882381708
 31
0.0
  0
LINE
  5
BEF
330
1F
100
AcDbEntity
  8
実線
100
AcDbLine
 10
108.3617859617186
 20
212.2390882381708
 30
0.0
 11
108.3617859617186
 21
211.2390882381709
 31
0.0
  0
LINE
  5
BF0
330
1F
100
AcDbEntity
  8
細線
100
AcDbLine
 10
108.7617859617186
 20
212.2390882381708
 30
0.0
 11
108.7617859617186
 21
211.2390882381708
 31
0.0
  0
LINE
  5
BF1
330
1F
100
AcDbEntity
  8
実線
100
AcDbLine
 10
111.3617859617186
 20
210.9390882381708
 30
0.0
 11
110.8617859617186
 21
210.4390882381708
 31
0.0
  0
LINE
  5
BF2
330
1F
100
AcDbEntity
  8
実線
100
AcDbLine
 10
110.3617859617186
 20
211.2390882381708
 30
0.0
 11
110.8617859617186
 21
210.7390882381708
 31
0.0
  0
LINE
  5
BF3
330
1F
100
AcDbEntity
  8
実線
100
AcDbLine
 10
110.8617859617186
 20
212.7390882381708
 30
0.0
 11
111.3617859617186
 21
213.2390882381708
 31
0.0
  0
LINE
  5
BF4
330
1F
100
AcDbEntity
  8
実線
100
AcDbLine
 10
110.3617859617186
 20
212.2390882381708
 30
0.0
 11
110.3617859617186
 21
211.2390882381709
 31
0.0
  0
LINE
  5
BF5
330
1F
100
AcDbEntity
  8
実線
100
AcDbLine
 10
109.9617859617186
 20
212.7390882381708
 30
0.0
 11
109.9617859617186
 21
212.2390882381708
 31
0.0
  0
LINE
  5
BF6
330
1F
100
AcDbEntity
  8
細線
100
AcDbLine
 10
109.9617859617186
 20
212.2390882381708
 30
0.0
 11
109.9617859617186
 21
211.2390882381708
 31
0.0
  0
LINE
  5
BF7
330
1F
100
AcDbEntity
  8
実線
100
AcDbLine
 10
107.3617859617186
 20
217.2390882381708
 30
0.0
 11
111.3617859617186
 21
217.2390882381708
 31
0.0
  0
LINE
  5
BF8
330
1F
100
AcDbEntity
  8
実線
100
AcDbLine
 10
110.8617859617186
 20
217.7390882381708
 30
0.0
 11
107.8617859617186
 21
217.7390882381708
 31
0.0
  0
LINE
  5
BF9
330
1F
100
AcDbEntity
  8
実線
100
AcDbLine
 10
107.8617859617186
 20
217.7390882381708
 30
0.0
 11
107.3617859617186
 21
217.2390882381708
 31
0.0
  0
LINE
  5
BFA
330
1F
100
AcDbEntity
  8
実線
100
AcDbLine
 10
111.3617859617186
 20
217.2390882381708
 30
0.0
 11
110.8617859617186
 21
217.7390882381708
 31
0.0
  0
LINE
  5
BFC
330
1F
100
AcDbEntity
  8
細線
100
AcDbLine
 10
127.7617859617186
 20
206.4890882381708
 30
0.0
 11
127.7617859617186
 21
185.9890882381708
 31
0.0
  0
LINE
  5
BFD
330
1F
100
AcDbEntity
  8
実線
100
AcDbLine
 10
128.2617859617186
 20
205.9890882381708
 30
0.0
 11
128.2617859617186
 21
186.4890882381708
 31
0.0
  0
LINE
  5
C01
330
1F
100
AcDbEntity
  8
細線
100
AcDbLine
 10
122.8617859617186
 20
208.8390882381708
 30
0.0
 11
122.8617859617186
 21
183.6390882381707
 31
0.0
  0
LINE
  5
C02
330
1F
100
AcDbEntity
  8
細線
100
AcDbLine
 10
121.3617859617186
 20
210.9390882381708
 30
0.0
 11
121.3617859617186
 21
181.5390882381708
 31
0.0
  0
LINE
  5
C03
330
1F
100
AcDbEntity
  8
実線
100
AcDbLine
 10
125.8617859617186
 20
208.8390882381708
 30
0.0
 11
125.8617859617186
 21
183.6390882381708
 31
0.0
  0
LINE
  5
C04
330
1F
100
AcDbEntity
  8
実線
100
AcDbLine
 10
121.8617859617186
 20
210.4390882381708
 30
0.0
 11
121.8617859617186
 21
182.0390882381708
 31
0.0
  0
LINE
  5
C06
330
1F
100
AcDbEntity
  8
実線
100
AcDbLine
 10
121.8617859617186
 20
182.0390882381708
 30
0.0
 11
121.3617859617186
 21
181.5390882381708
 31
0.0
  0
LINE
  5
C07
330
1F
100
AcDbEntity
  8
細線
100
AcDbLine
 10
122.8617859617186
 20
183.6390882381707
 30
0.0
 11
125.8617859617186
 21
183.6390882381708
 31
0.0
  0
LINE
  5
C08
330
1F
100
AcDbEntity
  8
実線
100
AcDbLine
 10
125.8617859617186
 20
183.6390882381708
 30
0.0
 11
125.2617859617186
 21
183.0390882381708
 31
0.0
  0
LINE
  5
C09
330
1F
100
AcDbEntity
  8
実線
100
AcDbLine
 10
122.8617859617186
 20
183.6390882381707
 30
0.0
 11
123.4617859617186
 21
183.0390882381707
 31
0.0
  0
LINE
  5
C0A
330
1F
100
AcDbEntity
  8
実線
100
AcDbLine
 10
121.8617859617186
 20
183.6390882381708
 30
0.0
 11
122.8617859617186
 21
183.6390882381708
 31
0.0
  0
LINE
  5
C0B
330
1F
100
AcDbEntity
  8
実線
100
AcDbLine
 10
123.4617859617186
 20
183.0390882381707
 30
0.0
 11
125.2617859617186
 21
183.0390882381708
 31
0.0
  0
LINE
  5
C0C
330
1F
100
AcDbEntity
  8
実線
 48
0.1
100
AcDbLine
 10
128.2617859617186
 20
186.4890882381708
 30
0.0
 11
127.7617859617186
 21
185.9890882381708
 31
0.0
  0
LINE
  5
C0D
330
1F
100
AcDbEntity
  8
実線
 48
0.1
100
AcDbLine
 10
125.8617859617186
 20
185.9890882381708
 30
0.0
 11
127.7617859617186
 21
185.9890882381708
 31
0.0
  0
LINE
  5
C0E
330
1F
100
AcDbEntity
  8
細線
100
AcDbLine
 10
139.3817859617186
 20
200.2390882381708
 30
0.0
 11
139.3817859617186
 21
192.2390882381708
 31
0.0
  0
LINE
  5
C15
330
1F
100
AcDbEntity
  8
細線
100
AcDbLine
 10
125.8617859617186
 20
208.8390882381708
 30
0.0
 11
122.8617859617186
 21
208.8390882381708
 31
0.0
  0
LINE
  5
C16
330
1F
100
AcDbEntity
  8
実線
100
AcDbLine
 10
125.2617859617186
 20
209.4390882381708
 30
0.0
 11
125.8617859617186
 21
208.8390882381708
 31
0.0
  0
LINE
  5
C17
330
1F
100
AcDbEntity
  8
実線
100
AcDbLine
 10
121.3617859617186
 20
210.9390882381708
 30
0.0
 11
121.8617859617186
 21
210.4390882381708
 31
0.0
  0
LINE
  5
C18
330
1F
100
AcDbEntity
  8
実線
100
AcDbLine
 10
123.4617859617186
 20
209.4390882381708
 30
0.0
 11
122.8617859617186
 21
208.8390882381708
 31
0.0
  0
LINE
  5
C19
330
1F
100
AcDbEntity
  8
実線
100
AcDbLine
 10
121.8617859617186
 20
208.8390882381708
 30
0.0
 11
122.8617859617186
 21
208.8390882381708
 31
0.0
  0
LINE
  5
C1A
330
1F
100
AcDbEntity
  8
実線
100
AcDbLine
 10
123.4617859617186
 20
209.4390882381708
 30
0.0
 11
125.2617859617186
 21
209.4390882381708
 31
0.0
  0
LINE
  5
C1B
330
1F
100
AcDbEntity
  8
実線
100
AcDbLine
 10
127.7617859617186
 20
206.4890882381708
 30
0.0
 11
128.2617859617186
 21
205.9890882381708
 31
0.0
  0
LINE
  5
C1C
330
1F
100
AcDbEntity
  8
実線
 48
0.1
100
AcDbLine
 10
125.8617859617186
 20
206.4890882381708
 30
0.0
 11
127.7617859617186
 21
206.4890882381708
 31
0.0
  0
LINE
  5
CFF
330
1F
100
AcDbEntity
  8
中心
 48
0.2
100
AcDbLine
 10
94.0617859617186
 20
219.7390882381708
 30
0.0
 11
94.0617859617186
 21
212.7390882381708
 31
0.0
  0
LINE
  5
D05
330
1F
100
AcDbEntity
  8
中心
 48
0.2
100
AcDbLine
 10
109.3617859617186
 20
218.7390882381708
 30
0.0
 11
109.3617859617186
 21
211.7390882381708
 31
0.0
  0
TEXT
  5
E3A
330
1F
100
AcDbEntity
  8
文字
100
AcDbText
 10
77.72961751558842
 20
161.9023783800022
 30
0.0
 40
3.0
  1
MODEL NUMBER W10035
  7
文字
 72
     4
 11
105.0296175155884
 21
163.4023783800022
 31
0.0
100
AcDbText
  0
ENDSEC
  0
SECTION
  2
OBJECTS
  0
DICTIONARY
  5
C
330
0
100
AcDbDictionary
281
     1
  3
ACAD_CIP_PREVIOUS_PRODUCT_INFO
350
E28
  3
ACAD_COLOR
350
E09
  3
ACAD_DETAILVIEWSTYLE
350
E22
  3
ACAD_GROUP
350
D
  3
ACAD_LAYOUT
350
1A
  3
ACAD_MATERIAL
350
DD7
  3
ACAD_MLEADERSTYLE
350
E1E
  3
ACAD_MLINESTYLE
350
17
  3
ACAD_PLOTSETTINGS
350
19
  3
ACAD_PLOTSTYLENAME
350
E
  3
ACAD_SCALELIST
350
E0C
  3
ACAD_SECTIONVIEWSTYLE
350
E20
  3
ACAD_TABLESTYLE
350
E0A
  3
ACAD_VISUALSTYLE
350
DF0
  3
ACDB_RECOMPOSE_DATA
350
E7E
  3
AcDbVariableDictionary
350
E6A
  3
AcDsDecomposeData
350
E84
  0
DICTIONARY
  5
E5F
330
2
100
AcDbDictionary
280
     1
281
     1
  3
ACAD_LAYERSTATES
360
E60
  0
DICTIONARY
  5
E3B
330
10
100
AcDbDictionary
280
     1
281
     1
  3
ADSK_XREC_LAYER_RECONCILED
360
E3C
  0
DICTIONARY
  5
E3D
330
83
100
AcDbDictionary
280
     1
281
     1
  3
ADSK_XREC_LAYER_RECONCILED
360
E3E
  0
DICTIONARY
  5
E3F
330
84
100
AcDbDictionary
280
     1
281
     1
  3
ADSK_XREC_LAYER_RECONCILED
360
E40
  0
DICTIONARY
  5
E45
330
88
100
AcDbDictionary
280
     1
281
     1
  3
ADSK_XREC_LAYER_RECONCILED
360
E46
  0
DICTIONARY
  5
E47
330
89
100
AcDbDictionary
280
     1
281
     1
  3
ADSK_XREC_LAYER_RECONCILED
360
E48
  0
DICTIONARY
  5
E49
330
8A
100
AcDbDictionary
280
     1
281
     1
  3
ADSK_XREC_LAYER_RECONCILED
360
E4A
  0
DICTIONARY
  5
E4B
330
8B
100
AcDbDictionary
280
     1
281
     1
  3
ADSK_XREC_LAYER_RECONCILED
360
E4C
  0
XRECORD
  5
E28
102
{ACAD_REACTORS
330
C
102
}
330
C
100
AcDbXrecord
280
     1
300
ACDLT
300
2015
300
ACDLT_F_S
  0
DICTIONARY
  5
E09
102
{ACAD_REACTORS
330
C
102
}
330
C
100
AcDbDictionary
281
     1
  0
DICTIONARY
  5
E22
102
{ACAD_REACTORS
330
C
102
}
330
C
100
AcDbDictionary
281
     1
  3
Metric50
350
E23
  0
DICTIONARY
  5
D
102
{ACAD_REACTORS
330
C
102
}
330
C
100
AcDbDictionary
281
     1
  0
DICTIONARY
  5
1A
102
{ACAD_REACTORS
330
C
102
}
330
C
100
AcDbDictionary
281
     1
  3
Layout1
350
1E
  3
Layout2
350
26
  3
Model
350
22
  0
DICTIONARY
  5
DD7
102
{ACAD_REACTORS
330
C
102
}
330
C
100
AcDbDictionary
281
     1
  3
ByBlock
350
DE0
  3
ByLayer
350
DD8
  3
Global
350
DE8
  0
DICTIONARY
  5
E1E
102
{ACAD_REACTORS
330
C
102
}
330
C
100
AcDbDictionary
281
     1
  3
Standard
350
E1F
  0
DICTIONARY
  5
17
102
{ACAD_REACTORS
330
C
102
}
330
C
100
AcDbDictionary
281
     1
  3
Standard
350
18
  0
DICTIONARY
  5
19
102
{ACAD_REACTORS
330
C
102
}
330
C
100
AcDbDictionary
281
     1
  0
ACDBDICTIONARYWDFLT
  5
E
102
{ACAD_REACTORS
330
C
102
}
330
C
100
AcDbDictionary
281
     1
  3
Normal
350
F
100
AcDbDictionaryWithDefault
340
F
  0
DICTIONARY
  5
E0C
102
{ACAD_REACTORS
330
C
102
}
330
C
100
AcDbDictionary
281
     1
  3
A0
350
E0D
  3
A1
350
E0E
  3
A2
350
E0F
  3
A3
350
E10
  3
A4
350
E11
  3
A5
350
E12
  3
A6
350
E13
  3
A7
350
E14
  3
A8
350
E15
  3
A9
350
E16
  3
B0
350
E17
  3
B1
350
E18
  3
B2
350
E19
  3
B3
350
E1A
  3
B4
350
E1B
  3
B5
350
E1C
  3
B6
350
E1D
  0
DICTIONARY
  5
E20
102
{ACAD_REACTORS
330
C
102
}
330
C
100
AcDbDictionary
281
     1
  3
Metric50
350
E21
  0
DICTIONARY
  5
E0A
102
{ACAD_REACTORS
330
C
102
}
330
C
100
AcDbDictionary
281
     1
  3
Standard
350
E0B
  0
DICTIONARY
  5
DF0
102
{ACAD_REACTORS
330
C
102
}
330
C
100
AcDbDictionary
281
     1
  3
2dWireframe
350
DF6
  3
Basic
350
DF5
  3
Brighten
350
DFC
  3
ColorChange
350
E00
  3
Conceptual
350
DF9
  3
Dim
350
DFB
  3
EdgeColorOff
350
E08
  3
Facepattern
350
DFF
  3
Flat
350
DF1
  3
FlatWithEdges
350
DF2
  3
Gouraud
350
DF3
  3
GouraudWithEdges
350
DF4
  3
Hidden
350
DF8
  3
JitterOff
350
E06
  3
Linepattern
350
DFE
  3
OverhangOff
350
E07
  3
Realistic
350
DFA
  3
Shaded
350
E05
  3
Shaded with edges
350
E04
  3
Shades of Gray
350
E01
  3
Sketchy
350
E02
  3
Thicken
350
DFD
  3
Wireframe
350
DF7
  3
X-Ray
350
E03
  0
XRECORD
  5
E7E
102
{ACAD_REACTORS
330
C
102
}
330
C
100
AcDbXrecord
280
     1
 90
        1
330
E0B
  0
DICTIONARY
  5
E6A
102
{ACAD_REACTORS
330
C
102
}
330
C
100
AcDbDictionary
281
     1
  3
CANNOSCALE
350
E70
  3
CMLEADERSTYLE
350
E6C
  3
CTABLESTYLE
350
E6B
  3
CVIEWDETAILSTYLE
350
E6D
  3
CVIEWSECTIONSTYLE
350
E6E
  3
LAYEREVAL
350
E72
  3
LAYERNOTIFY
350
E73
  3
LIGHTINGUNITS
350
E71
  3
MSLTSCALE
350
E6F
  3
XCLIPFRAME
350
E7B
  0
DICTIONARY
  5
E84
102
{ACAD_REACTORS
330
C
102
}
330
C
100
AcDbDictionary
281
     1
  3
AcDsRecords
350
E86
  3
AcDsSchemas
350
E85
1001
ACAD
1070
     2
  0
DICTIONARY
  5
E60
102
{ACAD_REACTORS
330
E5F
102
}
330
E5F
100
AcDbDictionary
281
     1
  0
XRECORD
  5
E3C
102
{ACAD_REACTORS
330
E3B
102
}
330
E3B
100
AcDbXrecord
280
     1
290
     1
  0
XRECORD
  5
E3E
102
{ACAD_REACTORS
330
E3D
102
}
330
E3D
100
AcDbXrecord
280
     1
290
     1
  0
XRECORD
  5
E40
102
{ACAD_REACTORS
330
E3F
102
}
330
E3F
100
AcDbXrecord
280
     1
290
     1
  0
XRECORD
  5
E46
102
{ACAD_REACTORS
330
E45
102
}
330
E45
100
AcDbXrecord
280
     1
290
     1
  0
XRECORD
  5
E48
102
{ACAD_REACTORS
330
E47
102
}
330
E47
100
AcDbXrecord
280
     1
290
     1
  0
XRECORD
  5
E4A
102
{ACAD_REACTORS
330
E49
102
}
330
E49
100
AcDbXrecord
280
     1
290
     1
  0
XRECORD
  5
E4C
102
{ACAD_REACTORS
330
E4B
102
}
330
E4B
100
AcDbXrecord
280
     1
290
     1
  0
ACDBDETAILVIEWSTYLE
  5
E23
102
{ACAD_XDICTIONARY
360
E67
102
}
102
{ACAD_REACTORS
330
E22
102
}
330
E22
100
AcDbModelDocViewStyle
 70
     0
  3
Metric50
290
     0
100
AcDbDetailViewStyle
 70
     0
 71
     0
 90
        3
 71
     1
340
11
 62
   256
 40
5.0
340
0
 62
   256
 40
5.0
300

 40
0.0
280
     1
 71
     2
340
16
 90
       25
 62
   256
 71
     3
340
11
 62
   256
 40
5.0
 90
        0
 40
15.0
 90
        1
300
%<\AcVar ViewDetailId>% (%<\AcVar ViewScale \f "%sn">%)
 71
     4
340
16
 90
       25
 62
   256
340
16
 90
       25
 62
   256
280
     0
  0
LAYOUT
  5
1E
102
{ACAD_REACTORS
330
1A
102
}
330
1A
100
AcDbPlotSettings
  1

  2

  4

  6

 40
0.0
 41
0.0
 42
0.0
 43
0.0
 44
0.0
 45
0.0
 46
0.0
 47
0.0
 48
0.0
 49
0.0
140
0.0
141
0.0
142
1.0
143
1.0
 70
   688
 72
     0
 73
     0
 74
     5
  7
monochrome.ctb
 75
    16
147
1.0
 76
     0
 77
     2
 78
   300
148
0.0
149
0.0
100
AcDbLayout
  1
Layout1
 70
     1
 71
     1
 10
0.0
 20
0.0
 11
420.0
 21
297.0
 12
0.0
 22
0.0
 32
0.0
 14
1.000000000000000E+20
 24
1.000000000000000E+20
 34
1.000000000000000E+20
 15
-1.000000000000000E+20
 25
-1.000000000000000E+20
 35
-1.000000000000000E+20
146
0.0
 13
0.0
 23
0.0
 33
0.0
 16
1.0
 26
0.0
 36
0.0
 17
0.0
 27
1.0
 37
0.0
 76
     0
330
1B
  0
LAYOUT
  5
26
102
{ACAD_REACTORS
330
1A
102
}
330
1A
100
AcDbPlotSettings
  1

  2

  4

  6

 40
0.0
 41
0.0
 42
0.0
 43
0.0
 44
0.0
 45
0.0
 46
0.0
 47
0.0
 48
0.0
 49
0.0
140
0.0
141
0.0
142
1.0
143
1.0
 70
   688
 72
     0
 73
     0
 74
     5
  7
monochrome.ctb
 75
    16
147
1.0
 76
     0
 77
     2
 78
   300
148
0.0
149
0.0
100
AcDbLayout
  1
Layout2
 70
     1
 71
     2
 10
0.0
 20
0.0
 11
12.0
 21
9.0
 12
0.0
 22
0.0
 32
0.0
 14
0.0
 24
0.0
 34
0.0
 15
0.0
 25
0.0
 35
0.0
146
0.0
 13
0.0
 23
0.0
 33
0.0
 16
1.0
 26
0.0
 36
0.0
 17
0.0
 27
1.0
 37
0.0
 76
     0
330
23
  0
LAYOUT
  5
22
102
{ACAD_REACTORS
330
1A
102
}
330
1A
100
AcDbPlotSettings
  1

  2
Canon LASER SHOT LBP-1510
  4
A4
  6

 40
5.873749732971191
 41
5.873747825622558
 42
5.873748779296875
 43
5.873748779296875
 44
209.9733276367187
 45
296.9259948730469
 46
0.0
 47
0.0
 48
0.0
 49
0.0
140
0.0
141
0.0
142
1.0
143
1.0
 70
 11952
 72
     1
 73
     1
 74
     0
  7

 75
     0
147
1.0
 76
     0
 77
     2
 78
   300
148
58.38922167658058
149
-5.328836450541757
100
AcDbLayout
  1
Model
 70
     1
 71
     0
 10
0.0
 20
0.0
 11
12.0
 21
9.0
 12
0.0
 22
0.0
 32
0.0
 14
0.0
 24
0.0
 34
0.0
 15
0.0
 25
0.0
 35
0.0
146
0.0
 13
0.0
 23
0.0
 33
0.0
 16
1.0
 26
0.0
 36
0.0
 17
0.0
 27
1.0
 37
0.0
 76
     0
330
1F
331
DD5
  0
MATERIAL
  5
DE0
102
{ACAD_XDICTIONARY
360
DE1
102
}
102
{ACAD_REACTORS
330
DD7
102
}
330
DD7
100
AcDbMaterial
  1
ByBlock
 72
     0
 43
0.0008202099737533
 43
0.0
 43
0.0
 43
0.0
 43
0.0
 43
0.0008202099737533
 43
0.0
 43
0.0
 43
0.0
 43
0.0
 43
1.0
 43
0.0
 43
0.0
 43
0.0
 43
0.0
 43
1.0
 77
     0
 47
0.0008202099737533
 47
0.0
 47
0.0
 47
0.0
 47
0.0
 47
0.0008202099737533
 47
0.0
 47
0.0
 47
0.0
 47
0.0
 47
1.0
 47
0.0
 47
0.0
 47
0.0
 47
0.0
 47
1.0
171
     0
 49
0.0008202099737533
 49
0.0
 49
0.0
 49
0.0
 49
0.0
 49
0.0008202099737533
 49
0.0
 49
0.0
 49
0.0
 49
0.0
 49
1.0
 49
0.0
 49
0.0
 49
0.0
 49
0.0
 49
1.0
175
     0
142
0.0008202099737533
142
0.0
142
0.0
142
0.0
142
0.0
142
0.0008202099737533
142
0.0
142
0.0
142
0.0
142
0.0
142
1.0
142
0.0
142
0.0
142
0.0
142
0.0
142
1.0
179
     0
144
0.0008202099737533
144
0.0
144
0.0
144
0.0
144
0.0
144
0.0008202099737533
144
0.0
144
0.0
144
0.0
144
0.0
144
1.0
144
0.0
144
0.0
144
0.0
144
0.0
144
1.0
147
0.0008202099737533
147
0.0
147
0.0
147
0.0
147
0.0
147
0.0008202099737533
147
0.0
147
0.0
147
0.0
147
0.0
147
1.0
147
0.0
147
0.0
147
0.0
147
0.0
147
1.0
  0
MATERIAL
  5
DD8
102
{ACAD_XDICTIONARY
360
DD9
102
}
102
{ACAD_REACTORS
330
DD7
102
}
330
DD7
100
AcDbMaterial
  1
ByLayer
 72
     0
 43
0.0008202099737533
 43
0.0
 43
0.0
 43
0.0
 43
0.0
 43
0.0008202099737533
 43
0.0
 43
0.0
 43
0.0
 43
0.0
 43
1.0
 43
0.0
 43
0.0
 43
0.0
 43
0.0
 43
1.0
 77
     0
 47
0.0008202099737533
 47
0.0
 47
0.0
 47
0.0
 47
0.0
 47
0.0008202099737533
 47
0.0
 47
0.0
 47
0.0
 47
0.0
 47
1.0
 47
0.0
 47
0.0
 47
0.0
 47
0.0
 47
1.0
171
     0
 49
0.0008202099737533
 49
0.0
 49
0.0
 49
0.0
 49
0.0
 49
0.0008202099737533
 49
0.0
 49
0.0
 49
0.0
 49
0.0
 49
1.0
 49
0.0
 49
0.0
 49
0.0
 49
0.0
 49
1.0
175
     0
142
0.0008202099737533
142
0.0
142
0.0
142
0.0
142
0.0
142
0.0008202099737533
142
0.0
142
0.0
142
0.0
142
0.0
142
1.0
142
0.0
142
0.0
142
0.0
142
0.0
142
1.0
179
     0
144
0.0008202099737533
144
0.0
144
0.0
144
0.0
144
0.0
144
0.0008202099737533
144
0.0
144
0.0
144
0.0
144
0.0
144
1.0
144
0.0
144
0.0
144
0.0
144
0.0
144
1.0
147
0.0008202099737533
147
0.0
147
0.0
147
0.0
147
0.0
147
0.0008202099737533
147
0.0
147
0.0
147
0.0
147
0.0
147
1.0
147
0.0
147
0.0
147
0.0
147
0.0
147
1.0
  0
MATERIAL
  5
DE8
102
{ACAD_XDICTIONARY
360
DE9
102
}
102
{ACAD_REACTORS
330
DD7
102
}
330
DD7
100
AcDbMaterial
  1
Global
 72
     0
 43
0.0008202099737533
 43
0.0
 43
0.0
 43
0.0
 43
0.0
 43
0.0008202099737533
 43
0.0
 43
0.0
 43
0.0
 43
0.0
 43
1.0
 43
0.0
 43
0.0
 43
0.0
 43
0.0
 43
1.0
 77
     0
 47
0.0008202099737533
 47
0.0
 47
0.0
 47
0.0
 47
0.0
 47
0.0008202099737533
 47
0.0
 47
0.0
 47
0.0
 47
0.0
 47
1.0
 47
0.0
 47
0.0
 47
0.0
 47
0.0
 47
1.0
171
     0
 49
0.0008202099737533
 49
0.0
 49
0.0
 49
0.0
 49
0.0
 49
0.0008202099737533
 49
0.0
 49
0.0
 49
0.0
 49
0.0
 49
1.0
 49
0.0
 49
0.0
 49
0.0
 49
0.0
 49
1.0
175
     0
142
0.0008202099737533
142
0.0
142
0.0
142
0.0
142
0.0
142
0.0008202099737533
142
0.0
142
0.0
142
0.0
142
0.0
142
1.0
142
0.0
142
0.0
142
0.0
142
0.0
142
1.0
179
     0
144
0.0008202099737533
144
0.0
144
0.0
144
0.0
144
0.0
144
0.0008202099737533
144
0.0
144
0.0
144
0.0
144
0.0
144
1.0
144
0.0
144
0.0
144
0.0
144
0.0
144
1.0
147
0.0008202099737533
147
0.0
147
0.0
147
0.0
147
0.0
147
0.0008202099737533
147
0.0
147
0.0
147
0.0
147
0.0
147
1.0
147
0.0
147
0.0
147
0.0
147
0.0
147
1.0
  0
MLEADERSTYLE
  5
E1F
102
{ACAD_XDICTIONARY
360
EB8
102
}
102
{ACAD_REACTORS
330
E1E
102
}
330
E1E
100
AcDbMLeaderStyle
170
     2
171
     1
172
     0
 90
        2
 40
0.0
 41
0.0
173
     1
 91
-1056964608
340
14
 92
       -2
290
     1
 42
2.0
291
     1
 43
0.36
  3
Standard
 44
4.0
300

342
11
174
     1
178
     6
175
     1
176
     0
 93
-1056964608
 45
4.0
292
     0
297
     0
 46
4.0
 94
-1056964608
 47
1.0
 49
1.0
140
1.0
293
     1
141
0.0
294
     1
177
     0
142
1.0
295
     0
296
     0
143
0.125
1001
ACAD_MLEADERVER
1070
     2
  0
MLINESTYLE
  5
18
102
{ACAD_REACTORS
330
17
102
}
330
17
100
AcDbMlineStyle
  2
STANDARD
 70
     0
  3

 62
   256
 51
90.0
 52
90.0
 71
     2
 49
0.5
 62
   256
  6
BYLAYER
 49
-0.5
 62
   256
  6
BYLAYER
  0
ACDBPLACEHOLDER
  5
F
102
{ACAD_REACTORS
330
E
102
}
330
E
  0
SCALE
  5
E0D
102
{ACAD_REACTORS
330
E0C
102
}
330
E0C
100
AcDbScale
 70
     0
300
1:1
140
1.0
141
1.0
290
     1
  0
SCALE
  5
E0E
102
{ACAD_REACTORS
330
E0C
102
}
330
E0C
100
AcDbScale
 70
     0
300
1:2
140
1.0
141
2.0
290
     0
  0
SCALE
  5
E0F
102
{ACAD_REACTORS
330
E0C
102
}
330
E0C
100
AcDbScale
 70
     0
300
1:4
140
1.0
141
4.0
290
     0
  0
SCALE
  5
E10
102
{ACAD_REACTORS
330
E0C
102
}
330
E0C
100
AcDbScale
 70
     0
300
1:5
140
1.0
141
5.0
290
     0
  0
SCALE
  5
E11
102
{ACAD_REACTORS
330
E0C
102
}
330
E0C
100
AcDbScale
 70
     0
300
1:8
140
1.0
141
8.0
290
     0
  0
SCALE
  5
E12
102
{ACAD_REACTORS
330
E0C
102
}
330
E0C
100
AcDbScale
 70
     0
300
1:10
140
1.0
141
10.0
290
     0
  0
SCALE
  5
E13
102
{ACAD_REACTORS
330
E0C
102
}
330
E0C
100
AcDbScale
 70
     0
300
1:16
140
1.0
141
16.0
290
     0
  0
SCALE
  5
E14
102
{ACAD_REACTORS
330
E0C
102
}
330
E0C
100
AcDbScale
 70
     0
300
1:20
140
1.0
141
20.0
290
     0
  0
SCALE
  5
E15
102
{ACAD_REACTORS
330
E0C
102
}
330
E0C
100
AcDbScale
 70
     0
300
1:30
140
1.0
141
30.0
290
     0
  0
SCALE
  5
E16
102
{ACAD_REACTORS
330
E0C
102
}
330
E0C
100
AcDbScale
 70
     0
300
1:40
140
1.0
141
40.0
290
     0
  0
SCALE
  5
E17
102
{ACAD_REACTORS
330
E0C
102
}
330
E0C
100
AcDbScale
 70
     0
300
1:50
140
1.0
141
50.0
290
     0
  0
SCALE
  5
E18
102
{ACAD_REACTORS
330
E0C
102
}
330
E0C
100
AcDbScale
 70
     0
300
1:100
140
1.0
141
100.0
290
     0
  0
SCALE
  5
E19
102
{ACAD_REACTORS
330
E0C
102
}
330
E0C
100
AcDbScale
 70
     0
300
2:1
140
2.0
141
1.0
290
     0
  0
SCALE
  5
E1A
102
{ACAD_REACTORS
330
E0C
102
}
330
E0C
100
AcDbScale
 70
     0
300
4:1
140
4.0
141
1.0
290
     0
  0
SCALE
  5
E1B
102
{ACAD_REACTORS
330
E0C
102
}
330
E0C
100
AcDbScale
 70
     0
300
8:1
140
8.0
141
1.0
290
     0
  0
SCALE
  5
E1C
102
{ACAD_REACTORS
330
E0C
102
}
330
E0C
100
AcDbScale
 70
     0
300
10:1
140
10.0
141
1.0
290
     0
  0
SCALE
  5
E1D
102
{ACAD_REACTORS
330
E0C
102
}
330
E0C
100
AcDbScale
 70
     0
300
100:1
140
100.0
141
1.0
290
     0
  0
ACDBSECTIONVIEWSTYLE
  5
E21
102
{ACAD_XDICTIONARY
360
E65
102
}
102
{ACAD_REACTORS
330
E20
102
}
330
E20
100
AcDbModelDocViewStyle
 70
     0
  3
Metric50
290
     0
100
AcDbSectionViewStyle
 70
     0
 71
     0
 90
      102
 71
     1
340
11
 62
   256
 40
5.0
340
0
340
0
 62
   256
 40
5.0
300
I, O, Q, S, X, Z
 40
10.0
 90
        0
 40
2.5
 90
        0
 71
     2
340
16
 90
       25
 62
   256
340
16
 90
       50
 62
   256
 40
5.0
 40
2.5
 40
5.0
 71
     3
340
11
 62
   256
 40
5.0
 90
        0
 40
15.0
 90
        1
300
%<\AcVar ViewSectionStartId>%-%<\AcVar ViewSectionEndId>% (%<\AcVar ViewScale \f "%sn">%)
 71
     4
 62
   256
 62
   257
300
ANSI31
 40
1.0
 90
        0
290
     0
290
     0
 90
        6
 40
0.0
 40
1.570796326794896
 40
0.2617993877991494
 40
1.308996938995747
 40
-0.2617993877991494
 40
1.832595714594046
  0
TABLESTYLE
  5
E0B
102
{ACAD_XDICTIONARY
360
E7C
102
}
102
{ACAD_REACTORS
330
E0A
102
}
330
E0A
100
AcDbTableStyle
  3
Standard
 70
     0
 71
     0
 40
1.5
 41
1.5
280
     0
281
     0
  7
Standard
140
4.5
170
     2
 62
     0
 63
     7
283
     0
 90
      512
 91
        0
  1

274
    -2
284
     1
 64
     0
275
    -2
285
     1
 65
     0
276
    -2
286
     1
 66
     0
277
    -2
287
     1
 67
     0
278
    -2
288
     1
 68
     0
279
    -2
289
     1
 69
     0
  7
Standard
140
6.0
170
     5
 62
     0
 63
     7
283
     0
 90
      512
 91
        0
  1

274
    -2
284
     1
 64
     0
275
    -2
285
     1
 65
     0
276
    -2
286
     1
 66
     0
277
    -2
287
     1
 67
     0
278
    -2
288
     1
 68
     0
279
    -2
289
     1
 69
     0
  7
Standard
140
4.5
170
     5
 62
     0
 63
     7
283
     0
 90
      512
 91
        0
  1

274
    -2
284
     1
 64
     0
275
    -2
285
     1
 65
     0
276
    -2
286
     1
 66
     0
277
    -2
287
     1
 67
     0
278
    -2
288
     1
 68
     0
279
    -2
289
     1
 69
     0
  0
VISUALSTYLE
  5
DF6
102
{ACAD_XDICTIONARY
360
E91
102
}
102
{ACAD_REACTORS
330
DF0
102
}
330
DF0
100
AcDbVisualStyle
  2
2dWireframe
 70
     4
 71
     0
 72
     2
 73
     0
 90
        0
 40
-0.6
 41
-30.0
 62
     5
 63
     7
421
 16777215
 74
     1
 91
        4
 64
     7
 65
   257
 75
     1
175
     1
 42
1.0
 92
        0
 66
   257
 43
1.0
 76
     1
 77
     6
 78
     2
 67
     7
 79
     5
170
     0
171
     0
290
     0
174
     0
 93
        1
 44
0.0
173
     0
291
     0
 45
0.0
1001
ACAD
1000
AcDbSavedByObjectVersion
1070
     0
  0
VISUALSTYLE
  5
DF5
102
{ACAD_XDICTIONARY
360
E8F
102
}
102
{ACAD_REACTORS
330
DF0
102
}
330
DF0
100
AcDbVisualStyle
  2
Basic
 70
     7
 71
     1
 72
     0
 73
     1
 90
        0
 40
-0.6
 41
-30.0
 62
     5
 63
     7
421
 16777215
 74
     0
 91
        4
 64
     7
 65
   257
 75
     1
175
     1
 42
1.0
 92
        8
 66
     7
 43
1.0
 76
     1
 77
     6
 78
     2
 67
     7
 79
     5
170
     0
171
     0
290
     0
174
     0
 93
        1
 44
0.0
173
     0
291
     1
 45
0.0
1001
ACAD
1000
AcDbSavedByObjectVersion
1070
     0
  0
VISUALSTYLE
  5
DFC
102
{ACAD_XDICTIONARY
360
E9D
102
}
102
{ACAD_REACTORS
330
DF0
102
}
330
DF0
100
AcDbVisualStyle
  2
Brighten
 70
    12
 71
     2
 72
     2
 73
     0
 90
        0
 40
-0.6
 41
-30.0
 62
     5
 63
     7
421
 16777215
 74
     1
 91
        4
 64
     7
 65
   257
 75
     1
175
     1
 42
1.0
 92
        8
 66
     7
 43
1.0
 76
     1
 77
     6
 78
     2
 67
     7
 79
     5
170
     0
171
     0
290
     0
174
     0
 93
        1
 44
50.0
173
     0
291
     1
 45
0.0
1001
ACAD
1000
AcDbSavedByObjectVersion
1070
     0
  0
VISUALSTYLE
  5
E00
102
{ACAD_XDICTIONARY
360
EA5
102
}
102
{ACAD_REACTORS
330
DF0
102
}
330
DF0
100
AcDbVisualStyle
  2
ColorChange
 70
    16
 71
     2
 72
     2
 73
     3
 90
        0
 40
-0.6
 41
-30.0
 62
     5
 63
     8
421
  8421504
 74
     1
 91
        4
 64
     7
 65
   257
 75
     1
175
     1
 42
1.0
 92
        8
 66
     8
424
  8421504
 43
1.0
 76
     1
 77
     6
 78
     2
 67
     7
 79
     5
170
     0
171
     0
290
     0
174
     0
 93
        1
 44
0.0
173
     0
291
     1
 45
0.0
1001
ACAD
1000
AcDbSavedByObjectVersion
1070
     0
  0
VISUALSTYLE
  5
DF9
102
{ACAD_XDICTIONARY
360
E97
102
}
102
{ACAD_REACTORS
330
DF0
102
}
330
DF0
100
AcDbVisualStyle
  2
Conceptual
 70
     9
 71
     3
 72
     2
 73
     0
 90
        0
 40
-0.6
 41
-30.0
 62
     5
 63
     7
421
 16777215
 74
     2
 91
        2
 64
     7
 65
   257
 75
     1
175
     1
 42
179.0
 92
        8
 66
     7
 43
1.0
 76
     1
 77
     6
 78
     2
 67
     7
 79
     3
170
     0
171
     0
290
     0
174
     0
 93
        1
 44
0.0
173
     0
291
     0
 45
0.0
1001
ACAD
1000
AcDbSavedByObjectVersion
1070
     0
  0
VISUALSTYLE
  5
DFB
102
{ACAD_XDICTIONARY
360
E9B
102
}
102
{ACAD_REACTORS
330
DF0
102
}
330
DF0
100
AcDbVisualStyle
  2
Dim
 70
    11
 71
     2
 72
     2
 73
     0
 90
        0
 40
-0.6
 41
-30.0
 62
     5
 63
     7
421
 16777215
 74
     1
 91
        4
 64
     7
 65
   257
 75
     1
175
     1
 42
1.0
 92
        8
 66
     7
 43
1.0
 76
     1
 77
     6
 78
     2
 67
     7
 79
     5
170
     0
171
     0
290
     0
174
     0
 93
        1
 44
-50.0
173
     0
291
     1
 45
0.0
1001
ACAD
1000
AcDbSavedByObjectVersion
1070
     0
  0
VISUALSTYLE
  5
E08
102
{ACAD_XDICTIONARY
360
EB5
102
}
102
{ACAD_REACTORS
330
DF0
102
}
330
DF0
100
AcDbVisualStyle
  2
EdgeColorOff
 70
    22
 71
     2
 72
     2
 73
     0
 90
        0
 40
-0.6
 41
-30.0
 62
     5
 63
     7
421
 16777215
 74
     1
 91
        4
 64
     7
 65
   257
 75
     1
175
     1
 42
1.0
 92
        8
 66
     7
 43
1.0
 76
     1
 77
     6
 78
     2
 67
     7
 79
     5
170
     0
171
     0
290
     0
174
     0
 93
        1
 44
0.0
173
     0
291
     1
 45
0.0
1001
ACAD
1000
AcDbSavedByObjectVersion
1070
     0
  0
VISUALSTYLE
  5
DFF
102
{ACAD_XDICTIONARY
360
EA3
102
}
102
{ACAD_REACTORS
330
DF0
102
}
330
DF0
100
AcDbVisualStyle
  2
Facepattern
 70
    15
 71
     2
 72
     2
 73
     0
 90
        0
 40
-0.6
 41
-30.0
 62
     5
 63
     7
421
 16777215
 74
     1
 91
        4
 64
     7
 65
   257
 75
     1
175
     1
 42
1.0
 92
        8
 66
     7
 43
1.0
 76
     1
 77
     6
 78
     2
 67
     7
 79
     5
170
     0
171
     0
290
     0
174
     0
 93
        1
 44
0.0
173
     0
291
     1
 45
0.0
1001
ACAD
1000
AcDbSavedByObjectVersion
1070
     0
  0
VISUALSTYLE
  5
DF1
102
{ACAD_XDICTIONARY
360
E87
102
}
102
{ACAD_REACTORS
330
DF0
102
}
330
DF0
100
AcDbVisualStyle
  2
Flat
 70
     0
 71
     2
 72
     1
 73
     1
 90
        2
 40
-0.6
 41
30.0
 62
     5
 63
     7
421
 16777215
 74
     0
 91
        0
 64
     7
 65
   257
 75
     1
175
     1
 42
1.0
 92
        8
 66
     7
 43
1.0
 76
     1
 77
     6
 78
     2
 67
     7
 79
     5
170
     0
171
     0
290
     0
174
     0
 93
       13
 44
0.0
173
     0
291
     1
 45
0.0
1001
ACAD
1000
AcDbSavedByObjectVersion
1070
     0
  0
VISUALSTYLE
  5
DF2
102
{ACAD_XDICTIONARY
360
E89
102
}
102
{ACAD_REACTORS
330
DF0
102
}
330
DF0
100
AcDbVisualStyle
  2
FlatWithEdges
 70
     1
 71
     2
 72
     1
 73
     1
 90
        2
 40
-0.6
 41
30.0
 62
     5
 63
     7
421
 16777215
 74
     1
 91
        0
 64
     7
 65
   257
 75
     1
175
     1
 42
1.0
 92
        0
 66
   257
 43
1.0
 76
     1
 77
     6
 78
     2
 67
     7
 79
     5
170
     0
171
     0
290
     0
174
     0
 93
       13
 44
0.0
173
     0
291
     1
 45
0.0
1001
ACAD
1000
AcDbSavedByObjectVersion
1070
     0
  0
VISUALSTYLE
  5
DF3
102
{ACAD_XDICTIONARY
360
E8B
102
}
102
{ACAD_REACTORS
330
DF0
102
}
330
DF0
100
AcDbVisualStyle
  2
Gouraud
 70
     2
 71
     2
 72
     2
 73
     1
 90
        2
 40
-0.6
 41
30.0
 62
     5
 63
     7
421
 16777215
 74
     0
 91
        0
 64
     7
 65
   257
 75
     1
175
     1
 42
1.0
 92
        0
 66
     7
 43
1.0
 76
     1
 77
     6
 78
     2
 67
     7
 79
     5
170
     0
171
     0
290
     0
174
     0
 93
       13
 44
0.0
173
     0
291
     1
 45
0.0
1001
ACAD
1000
AcDbSavedByObjectVersion
1070
     0
  0
VISUALSTYLE
  5
DF4
102
{ACAD_XDICTIONARY
360
E8D
102
}
102
{ACAD_REACTORS
330
DF0
102
}
330
DF0
100
AcDbVisualStyle
  2
GouraudWithEdges
 70
     3
 71
     2
 72
     2
 73
     1
 90
        2
 40
-0.6
 41
30.0
 62
     5
 63
     7
421
 16777215
 74
     1
 91
        0
 64
     7
 65
   257
 75
     1
175
     1
 42
1.0
 92
        0
 66
   257
 43
1.0
 76
     1
 77
     6
 78
     2
 67
     7
 79
     5
170
     0
171
     0
290
     0
174
     0
 93
       13
 44
0.0
173
     0
291
     1
 45
0.0
1001
ACAD
1000
AcDbSavedByObjectVersion
1070
     0
  0
VISUALSTYLE
  5
DF8
102
{ACAD_XDICTIONARY
360
E95
102
}
102
{ACAD_REACTORS
330
DF0
102
}
330
DF0
100
AcDbVisualStyle
  2
Hidden
 70
     6
 71
     1
 72
     2
 73
     2
 90
        0
 40
-0.6
 41
-30.0
 62
     5
 63
     7
421
 16777215
 74
     2
 91
        2
 64
     7
 65
   257
 75
     2
175
     1
 42
40.0
 92
        0
 66
   257
 43
1.0
 76
     1
 77
     6
 78
     2
 67
     7
 79
     3
170
     0
171
     0
290
     0
174
     0
 93
        1
 44
0.0
173
     0
291
     0
 45
0.0
1001
ACAD
1000
AcDbSavedByObjectVersion
1070
     0
  0
VISUALSTYLE
  5
E06
102
{ACAD_XDICTIONARY
360
EB1
102
}
102
{ACAD_REACTORS
330
DF0
102
}
330
DF0
100
AcDbVisualStyle
  2
JitterOff
 70
    20
 71
     2
 72
     2
 73
     0
 90
        0
 40
-0.6
 41
-30.0
 62
     5
 63
     7
421
 16777215
 74
     1
 91
        4
 64
     7
 65
   257
 75
     1
175
     1
 42
1.0
 92
       10
 66
     7
 43
1.0
 76
     1
 77
     6
 78
     2
 67
     7
 79
     5
170
     0
171
     0
290
     0
174
     0
 93
        1
 44
0.0
173
     0
291
     1
 45
0.0
1001
ACAD
1000
AcDbSavedByObjectVersion
1070
     0
  0
VISUALSTYLE
  5
DFE
102
{ACAD_XDICTIONARY
360
EA1
102
}
102
{ACAD_REACTORS
330
DF0
102
}
330
DF0
100
AcDbVisualStyle
  2
Linepattern
 70
    14
 71
     2
 72
     2
 73
     0
 90
        0
 40
-0.6
 41
-30.0
 62
     5
 63
     7
421
 16777215
 74
     1
 91
        4
 64
     7
 65
   257
 75
     7
175
     7
 42
1.0
 92
        8
 66
     7
 43
1.0
 76
     1
 77
     6
 78
     2
 67
     7
 79
     5
170
     0
171
     0
290
     0
174
     0
 93
        1
 44
0.0
173
     0
291
     1
 45
0.0
1001
ACAD
1000
AcDbSavedByObjectVersion
1070
     0
  0
VISUALSTYLE
  5
E07
102
{ACAD_XDICTIONARY
360
EB3
102
}
102
{ACAD_REACTORS
330
DF0
102
}
330
DF0
100
AcDbVisualStyle
  2
OverhangOff
 70
    21
 71
     2
 72
     2
 73
     0
 90
        0
 40
-0.6
 41
-30.0
 62
     5
 63
     7
421
 16777215
 74
     1
 91
        4
 64
     7
 65
   257
 75
     1
175
     1
 42
1.0
 92
        9
 66
     7
 43
1.0
 76
     1
 77
     6
 78
     2
 67
     7
 79
     5
170
     0
171
     0
290
     0
174
     0
 93
        1
 44
0.0
173
     0
291
     1
 45
0.0
1001
ACAD
1000
AcDbSavedByObjectVersion
1070
     0
  0
VISUALSTYLE
  5
DFA
102
{ACAD_XDICTIONARY
360
E99
102
}
102
{ACAD_REACTORS
330
DF0
102
}
330
DF0
100
AcDbVisualStyle
  2
Realistic
 70
     8
 71
     2
 72
     3
 73
     0
 90
        2
 40
-0.6
 41
30.0
 62
     5
 63
     7
421
 16777215
 74
     0
 91
        0
 64
     7
 65
   257
 75
     1
175
     1
 42
1.0
 92
        8
 66
   257
 43
1.0
 76
     1
 77
     6
 78
     2
 67
     7
 79
     3
170
     0
171
     0
290
     0
174
     0
 93
       13
 44
0.0
173
     0
291
     0
 45
0.0
1001
ACAD
1000
AcDbSavedByObjectVersion
1070
     0
  0
VISUALSTYLE
  5
E05
102
{ACAD_XDICTIONARY
360
EAF
102
}
102
{ACAD_REACTORS
330
DF0
102
}
330
DF0
100
AcDbVisualStyle
  2
Shaded
 70
    27
 71
     2
 72
     2
 73
     1
 90
        2
 40
-0.6
 41
30.0
 62
     5
 63
     7
421
 16777215
 74
     0
 91
        4
 64
     7
 65
   257
 75
     1
175
     1
 42
1.0
 92
        8
 66
   257
 43
1.0
 76
     1
 77
     6
 78
     2
 67
     8
425
  7895160
 79
     3
170
     0
171
     0
290
     0
174
     0
 93
        5
 44
0.0
173
     0
291
     0
 45
0.0
1001
ACAD
1000
AcDbSavedByObjectVersion
1070
     0
  0
VISUALSTYLE
  5
E04
102
{ACAD_XDICTIONARY
360
EAD
102
}
102
{ACAD_REACTORS
330
DF0
102
}
330
DF0
100
AcDbVisualStyle
  2
Shaded with edges
 70
    26
 71
     2
 72
     2
 73
     1
 90
        2
 40
-0.6
 41
30.0
 62
     5
 63
     7
421
 16777215
 74
     1
 91
       10
 64
     7
 65
   257
 75
     2
175
     1
 42
1.0
 92
        8
 66
   257
 43
1.0
 76
     1
 77
     6
 78
     2
 67
     7
 79
     3
170
     0
171
     0
290
     0
174
     0
 93
        5
 44
0.0
173
     0
291
     0
 45
0.0
1001
ACAD
1000
AcDbSavedByObjectVersion
1070
     0
  0
VISUALSTYLE
  5
E01
102
{ACAD_XDICTIONARY
360
EA7
102
}
102
{ACAD_REACTORS
330
DF0
102
}
330
DF0
100
AcDbVisualStyle
  2
Shades of Gray
 70
    23
 71
     2
 72
     2
 73
     3
 90
        0
 40
-0.6
 41
-30.0
 62
     5
 63
     7
421
 16777215
 74
     2
 91
        2
 64
     7
 65
     7
 75
     1
175
     1
 42
40.0
 92
        8
 66
     7
 43
1.0
 76
     1
 77
     6
 78
     2
 67
     7
 79
     3
170
     0
171
     0
290
     0
174
     0
 93
        1
 44
0.0
173
     0
291
     0
 45
0.0
1001
ACAD
1000
AcDbSavedByObjectVersion
1070
     0
  0
VISUALSTYLE
  5
E02
102
{ACAD_XDICTIONARY
360
EA9
102
}
102
{ACAD_REACTORS
330
DF0
102
}
330
DF0
100
AcDbVisualStyle
  2
Sketchy
 70
    24
 71
     1
 72
     2
 73
     2
 90
        0
 40
-0.6
 41
-30.0
 62
     5
 63
     7
421
 16777215
 74
     2
 91
        2
 64
     7
 65
     7
 75
     1
175
     1
 42
40.0
 92
       11
 66
     7
 43
1.0
 76
     1
 77
     6
 78
     2
 67
     7
 79
     6
170
     0
171
     0
290
     0
174
     0
 93
        1
 44
0.0
173
     0
291
     0
 45
0.0
1001
ACAD
1000
AcDbSavedByObjectVersion
1070
     0
  0
VISUALSTYLE
  5
DFD
102
{ACAD_XDICTIONARY
360
E9F
102
}
102
{ACAD_REACTORS
330
DF0
102
}
330
DF0
100
AcDbVisualStyle
  2
Thicken
 70
    13
 71
     2
 72
     2
 73
     0
 90
        0
 40
-0.6
 41
-30.0
 62
     5
 63
     7
421
 16777215
 74
     1
 91
        4
 64
     7
 65
   257
 75
     1
175
     1
 42
1.0
 92
       12
 66
     7
 43
1.0
 76
     1
 77
     6
 78
     2
 67
     7
 79
     5
170
     0
171
     0
290
     0
174
     0
 93
        1
 44
0.0
173
     0
291
     1
 45
0.0
1001
ACAD
1000
AcDbSavedByObjectVersion
1070
     0
  0
VISUALSTYLE
  5
DF7
102
{ACAD_XDICTIONARY
360
E93
102
}
102
{ACAD_REACTORS
330
DF0
102
}
330
DF0
100
AcDbVisualStyle
  2
Wireframe
 70
     5
 71
     0
 72
     2
 73
     0
 90
        0
 40
-0.6
 41
-30.0
 62
     5
 63
     7
421
 16777215
 74
     1
 91
        4
 64
     7
 65
   257
 75
     1
175
     1
 42
1.0
 92
        0
 66
   257
 43
1.0
 76
     1
 77
     6
 78
     2
 67
     7
 79
     3
170
     0
171
     0
290
     0
174
     0
 93
        1
 44
0.0
173
     0
291
     0
 45
0.0
1001
ACAD
1000
AcDbSavedByObjectVersion
1070
     0
  0
VISUALSTYLE
  5
E03
102
{ACAD_XDICTIONARY
360
EAB
102
}
102
{ACAD_REACTORS
330
DF0
102
}
330
DF0
100
AcDbVisualStyle
  2
X-Ray
 70
    25
 71
     2
 72
     2
 73
     1
 90
        1
 40
0.5
 41
-30.0
 62
     5
 63
     7
421
 16777215
 74
     1
 91
        0
 64
     7
 65
   257
 75
     1
175
     1
 42
1.0
 92
        8
 66
     7
 43
1.0
 76
     1
 77
     6
 78
     2
 67
     7
 79
     3
170
     0
171
     0
290
     0
174
     0
 93
       13
 44
0.0
173
     0
291
     0
 45
0.0
1001
ACAD
1000
AcDbSavedByObjectVersion
1070
     0
  0
DICTIONARYVAR
  5
E70
102
{ACAD_REACTORS
330
E6A
102
}
330
E6A
100
DictionaryVariables
280
     0
  1
1:1
  0
DICTIONARYVAR
  5
E6C
102
{ACAD_REACTORS
330
E6A
102
}
330
E6A
100
DictionaryVariables
280
     0
  1
STANDARD
  0
DICTIONARYVAR
  5
E6B
102
{ACAD_REACTORS
330
E6A
102
}
330
E6A
100
DictionaryVariables
280
     0
  1
STANDARD
  0
DICTIONARYVAR
  5
E6D
102
{ACAD_REACTORS
330
E6A
102
}
330
E6A
100
DictionaryVariables
280
     0
  1
Metric50
  0
DICTIONARYVAR
  5
E6E
102
{ACAD_REACTORS
330
E6A
102
}
330
E6A
100
DictionaryVariables
280
     0
  1
Metric50
  0
DICTIONARYVAR
  5
E72
102
{ACAD_REACTORS
330
E6A
102
}
330
E6A
100
DictionaryVariables
280
     0
  1
1
  0
DICTIONARYVAR
  5
E73
102
{ACAD_REACTORS
330
E6A
102
}
330
E6A
100
DictionaryVariables
280
     0
  1
15
  0
DICTIONARYVAR
  5
E71
102
{ACAD_REACTORS
330
E6A
102
}
330
E6A
100
DictionaryVariables
280
     0
  1
0
  0
DICTIONARYVAR
  5
E6F
102
{ACAD_REACTORS
330
E6A
102
}
330
E6A
100
DictionaryVariables
280
     0
  1
0
  0
DICTIONARYVAR
  5
E7B
102
{ACAD_REACTORS
330
E6A
102
}
330
E6A
100
DictionaryVariables
280
     0
  1
2
  0
DICTIONARY
  5
E86
102
{ACAD_REACTORS
330
E84
102
}
330
E84
100
AcDbDictionary
281
     1
  0
DICTIONARY
  5
E85
102
{ACAD_REACTORS
330
E84
102
}
330
E84
100
AcDbDictionary
281
     1
  3
8796087855728
350
E7F
  3
8796087855744
350
E80
  3
8796087855760
350
E81
  3
8796087855776
350
E82
  3
8796087855792
350
E83
  0
DICTIONARY
  5
E67
330
E23
100
AcDbDictionary
280
     1
281
     1
  3
ACAD_XREC_ROUNDTRIP
360
EBB
  0
DICTIONARY
  5
DE1
330
DE0
100
AcDbDictionary
280
     1
281
     1
  3
BUMPTILE
360
DE3
  3
DIFFUSETILE
360
DE2
  3
OPACITYTILE
360
DE6
  3
REFLECTIONTILE
360
DE5
  3
REFRACTIONTILE
360
DE7
  3
SPECULARTILE
360
DE4
  0
DICTIONARY
  5
DD9
330
DD8
100
AcDbDictionary
280
     1
281
     1
  3
BUMPTILE
360
DDB
  3
DIFFUSETILE
360
DDA
  3
OPACITYTILE
360
DDE
  3
REFLECTIONTILE
360
DDD
  3
REFRACTIONTILE
360
DDF
  3
SPECULARTILE
360
DDC
  0
DICTIONARY
  5
DE9
330
DE8
100
AcDbDictionary
280
     1
281
     1
  3
BUMPTILE
360
DEB
  3
DIFFUSETILE
360
DEA
  3
OPACITYTILE
360
DEE
  3
REFLECTIONTILE
360
DED
  3
REFRACTIONTILE
360
DEF
  3
SPECULARTILE
360
DEC
  0
DICTIONARY
  5
EB8
330
E1F
100
AcDbDictionary
280
     1
281
     1
  3
ACAD_XREC_ROUNDTRIP
360
EB9
  0
DICTIONARY
  5
E65
330
E21
100
AcDbDictionary
280
     1
281
     1
  3
ACAD_XREC_ROUNDTRIP
360
EBA
  0
DICTIONARY
  5
E7C
330
E0B
100
AcDbDictionary
280
     1
281
     1
  3
ACAD_ROUNDTRIP_2008_TABLESTYLE_CELLSTYLEMAP
360
E7D
  0
DICTIONARY
  5
E91
330
DF6
100
AcDbDictionary
280
     1
281
     1
  3
ACAD_XREC_ROUNDTRIP
360
E92
  0
DICTIONARY
  5
E8F
330
DF5
100
AcDbDictionary
280
     1
281
     1
  3
ACAD_XREC_ROUNDTRIP
360
E90
  0
DICTIONARY
  5
E9D
330
DFC
100
AcDbDictionary
280
     1
281
     1
  3
ACAD_XREC_ROUNDTRIP
360
E9E
  0
DICTIONARY
  5
EA5
330
E00
100
AcDbDictionary
280
     1
281
     1
  3
ACAD_XREC_ROUNDTRIP
360
EA6
  0
DICTIONARY
  5
E97
330
DF9
100
AcDbDictionary
280
     1
281
     1
  3
ACAD_XREC_ROUNDTRIP
360
E98
  0
DICTIONARY
  5
E9B
330
DFB
100
AcDbDictionary
280
     1
281
     1
  3
ACAD_XREC_ROUNDTRIP
360
E9C
  0
DICTIONARY
  5
EB5
330
E08
100
AcDbDictionary
280
     1
281
     1
  3
ACAD_XREC_ROUNDTRIP
360
EB6
  0
DICTIONARY
  5
EA3
330
DFF
100
AcDbDictionary
280
     1
281
     1
  3
ACAD_XREC_ROUNDTRIP
360
EA4
  0
DICTIONARY
  5
E87
330
DF1
100
AcDbDictionary
280
     1
281
     1
  3
ACAD_XREC_ROUNDTRIP
360
E88
  0
DICTIONARY
  5
E89
330
DF2
100
AcDbDictionary
280
     1
281
     1
  3
ACAD_XREC_ROUNDTRIP
360
E8A
  0
DICTIONARY
  5
E8B
330
DF3
100
AcDbDictionary
280
     1
281
     1
  3
ACAD_XREC_ROUNDTRIP
360
E8C
  0
DICTIONARY
  5
E8D
330
DF4
100
AcDbDictionary
280
     1
281
     1
  3
ACAD_XREC_ROUNDTRIP
360
E8E
  0
DICTIONARY
  5
E95
330
DF8
100
AcDbDictionary
280
     1
281
     1
  3
ACAD_XREC_ROUNDTRIP
360
E96
  0
DICTIONARY
  5
EB1
330
E06
100
AcDbDictionary
280
     1
281
     1
  3
ACAD_XREC_ROUNDTRIP
360
EB2
  0
DICTIONARY
  5
EA1
330
DFE
100
AcDbDictionary
280
     1
281
     1
  3
ACAD_XREC_ROUNDTRIP
360
EA2
  0
DICTIONARY
  5
EB3
330
E07
100
AcDbDictionary
280
     1
281
     1
  3
ACAD_XREC_ROUNDTRIP
360
EB4
  0
DICTIONARY
  5
E99
330
DFA
100
AcDbDictionary
280
     1
281
     1
  3
ACAD_XREC_ROUNDTRIP
360
E9A
  0
DICTIONARY
  5
EAF
330
E05
100
AcDbDictionary
280
     1
281
     1
  3
ACAD_XREC_ROUNDTRIP
360
EB0
  0
DICTIONARY
  5
EAD
330
E04
100
AcDbDictionary
280
     1
281
     1
  3
ACAD_XREC_ROUNDTRIP
360
EAE
  0
DICTIONARY
  5
EA7
330
E01
100
AcDbDictionary
280
     1
281
     1
  3
ACAD_XREC_ROUNDTRIP
360
EA8
  0
DICTIONARY
  5
EA9
330
E02
100
AcDbDictionary
280
     1
281
     1
  3
ACAD_XREC_ROUNDTRIP
360
EAA
  0
DICTIONARY
  5
E9F
330
DFD
100
AcDbDictionary
280
     1
281
     1
  3
ACAD_XREC_ROUNDTRIP
360
EA0
  0
DICTIONARY
  5
E93
330
DF7
100
AcDbDictionary
280
     1
281
     1
  3
ACAD_XREC_ROUNDTRIP
360
E94
  0
DICTIONARY
  5
EAB
330
E03
100
AcDbDictionary
280
     1
281
     1
  3
ACAD_XREC_ROUNDTRIP
360
EAC
  0
XRECORD
  5
E7F
102
{ACAD_REACTORS
330
E85
102
}
330
E85
100
AcDbXrecord
280
     1
  1
AcDb_Thumbnail_Schema
102
{ATTRRECORD
341
E80
  2
AcDbDs::TreatedAsObjectData
280
     1
291
     1
102
ATTRRECORD}
102
{ATTRRECORD
341
E81
  2
AcDbDs::Legacy
280
     1
291
     1
102
ATTRRECORD}
  2
AcDbDs::ID
280
    10
 91
        8
102
{ATTRRECORD
341
E82
  2
AcDs:Indexable
280
     1
291
     1
102
ATTRRECORD}
102
{ATTRRECORD
341
E83
  2
AcDbDs::HandleAttribute
280
     7
282
     1
102
ATTRRECORD}
  2
Thumbnail_Data
280
    15
 91
        0
  0
XRECORD
  5
E80
102
{ACAD_REACTORS
330
E85
102
}
330
E85
100
AcDbXrecord
280
     1
  1
AcDbDs::TreatedAsObjectDataSchema
  2
AcDbDs::TreatedAsObjectData
280
     1
 91
        0
  0
XRECORD
  5
E81
102
{ACAD_REACTORS
330
E85
102
}
330
E85
100
AcDbXrecord
280
     1
  1
AcDbDs::LegacySchema
  2
AcDbDs::Legacy
280
     1
 91
        0
  0
XRECORD
  5
E82
102
{ACAD_REACTORS
330
E85
102
}
330
E85
100
AcDbXrecord
280
     1
  1
AcDbDs::IndexedPropertySchema
  2
AcDs:Indexable
280
     1
 91
        0
  0
XRECORD
  5
E83
102
{ACAD_REACTORS
330
E85
102
}
330
E85
100
AcDbXrecord
280
     1
  1
AcDbDs::HandleAttributeSchema
  2
AcDbDs::HandleAttribute
280
     7
 91
        1
284
     1
  0
XRECORD
  5
EBB
102
{ACAD_REACTORS
330
E67
102
}
330
E67
100
AcDbXrecord
280
     1
102
DISPLAYNAME
  1
Metric50
102
FLAGS
 90
        0
  0
XRECORD
  5
DE3
102
{ACAD_REACTORS
330
DE1
102
}
330
DE1
100
AcDbXrecord
280
     1
270
     1
271
     1
  0
XRECORD
  5
DE2
102
{ACAD_REACTORS
330
DE1
102
}
330
DE1
100
AcDbXrecord
280
     1
270
     1
271
     1
  0
XRECORD
  5
DE6
102
{ACAD_REACTORS
330
DE1
102
}
330
DE1
100
AcDbXrecord
280
     1
270
     1
271
     1
  0
XRECORD
  5
DE5
102
{ACAD_REACTORS
330
DE1
102
}
330
DE1
100
AcDbXrecord
280
     1
270
     1
271
     1
  0
XRECORD
  5
DE7
102
{ACAD_REACTORS
330
DE1
102
}
330
DE1
100
AcDbXrecord
280
     1
270
     1
271
     1
  0
XRECORD
  5
DE4
102
{ACAD_REACTORS
330
DE1
102
}
330
DE1
100
AcDbXrecord
280
     1
270
     1
271
     1
  0
XRECORD
  5
DDB
102
{ACAD_REACTORS
330
DD9
102
}
330
DD9
100
AcDbXrecord
280
     1
270
     1
271
     1
  0
XRECORD
  5
DDA
102
{ACAD_REACTORS
330
DD9
102
}
330
DD9
100
AcDbXrecord
280
     1
270
     1
271
     1
  0
XRECORD
  5
DDE
102
{ACAD_REACTORS
330
DD9
102
}
330
DD9
100
AcDbXrecord
280
     1
270
     1
271
     1
  0
XRECORD
  5
DDD
102
{ACAD_REACTORS
330
DD9
102
}
330
DD9
100
AcDbXrecord
280
     1
270
     1
271
     1
  0
XRECORD
  5
DDF
102
{ACAD_REACTORS
330
DD9
102
}
330
DD9
100
AcDbXrecord
280
     1
270
     1
271
     1
  0
XRECORD
  5
DDC
102
{ACAD_REACTORS
330
DD9
102
}
330
DD9
100
AcDbXrecord
280
     1
270
     1
271
     1
  0
XRECORD
  5
DEB
102
{ACAD_REACTORS
330
DE9
102
}
330
DE9
100
AcDbXrecord
280
     1
270
     1
271
     1
  0
XRECORD
  5
DEA
102
{ACAD_REACTORS
330
DE9
102
}
330
DE9
100
AcDbXrecord
280
     1
270
     1
271
     1
  0
XRECORD
  5
DEE
102
{ACAD_REACTORS
330
DE9
102
}
330
DE9
100
AcDbXrecord
280
     1
270
     1
271
     1
  0
XRECORD
  5
DED
102
{ACAD_REACTORS
330
DE9
102
}
330
DE9
100
AcDbXrecord
280
     1
270
     1
271
     1
  0
XRECORD
  5
DEF
102
{ACAD_REACTORS
330
DE9
102
}
330
DE9
100
AcDbXrecord
280
     1
270
     1
271
     1
  0
XRECORD
  5
DEC
102
{ACAD_REACTORS
330
DE9
102
}
330
DE9
100
AcDbXrecord
280
     1
270
     1
271
     1
  0
XRECORD
  5
EB9
102
{ACAD_REACTORS
330
EB8
102
}
330
EB8
100
AcDbXrecord
280
     1
102
ACAD_ROUNDTRIP_2012_MLEADER_STYLE
298
     1
  0
XRECORD
  5
EBA
102
{ACAD_REACTORS
330
E65
102
}
330
E65
100
AcDbXrecord
280
     1
102
DISPLAYNAME
  1
Metric50
102
FLAGS
 90
        0
  0
CELLSTYLEMAP
  5
E7D
102
{ACAD_REACTORS
330
E7C
102
}
330
E7C
100
AcDbCellStyleMap
 90
        3
300
CELLSTYLE
  1
TABLEFORMAT_BEGIN
 90
        5
170
     1
 91
        0
 92
    32768
 62
   257
 93
        1
300
CONTENTFORMAT
  1
CONTENTFORMAT_BEGIN
 90
        0
 91
        0
 92
      512
 93
        0
300

 40
0.0
140
1.0
 94
        5
 62
     0
340
11
144
6.0
309
CONTENTFORMAT_END
171
     1
301
MARGIN
  1
CELLMARGIN_BEGIN
 40
1.5
 40
1.5
 40
1.5
 40
1.5
 40
4.5
 40
4.5
309
CELLMARGIN_END
 94
        6
 95
        1
302
GRIDFORMAT
  1
GRIDFORMAT_BEGIN
 90
        0
 91
        1
 62
     0
 92
       -2
340
0
 93
        0
 40
1.125
309
GRIDFORMAT_END
 95
        2
302
GRIDFORMAT
  1
GRIDFORMAT_BEGIN
 90
        0
 91
        1
 62
     0
 92
       -2
340
0
 93
        0
 40
1.125
309
GRIDFORMAT_END
 95
        4
302
GRIDFORMAT
  1
GRIDFORMAT_BEGIN
 90
        0
 91
        1
 62
     0
 92
       -2
340
0
 93
        0
 40
1.125
309
GRIDFORMAT_END
 95
        8
302
GRIDFORMAT
  1
GRIDFORMAT_BEGIN
 90
        0
 91
        1
 62
     0
 92
       -2
340
0
 93
        0
 40
1.125
309
GRIDFORMAT_END
 95
       16
302
GRIDFORMAT
  1
GRIDFORMAT_BEGIN
 90
        0
 91
        1
 62
     0
 92
       -2
340
0
 93
        0
 40
1.125
309
GRIDFORMAT_END
 95
       32
302
GRIDFORMAT
  1
GRIDFORMAT_BEGIN
 90
        0
 91
        1
 62
     0
 92
       -2
340
0
 93
        0
 40
1.125
309
GRIDFORMAT_END
309
TABLEFORMAT_END
  1
CELLSTYLE_BEGIN
 90
        1
 91
        1
300
_TITLE
309
CELLSTYLE_END
300
CELLSTYLE
  1
TABLEFORMAT_BEGIN
 90
        5
170
     1
 91
        0
 92
        0
 62
   257
 93
        1
300
CONTENTFORMAT
  1
CONTENTFORMAT_BEGIN
 90
        0
 91
        0
 92
      512
 93
        0
300

 40
0.0
140
1.0
 94
        5
 62
     0
340
11
144
4.5
309
CONTENTFORMAT_END
171
     1
301
MARGIN
  1
CELLMARGIN_BEGIN
 40
1.5
 40
1.5
 40
1.5
 40
1.5
 40
4.5
 40
4.5
309
CELLMARGIN_END
 94
        6
 95
        1
302
GRIDFORMAT
  1
GRIDFORMAT_BEGIN
 90
        0
 91
        1
 62
     0
 92
       -2
340
0
 93
        0
 40
1.125
309
GRIDFORMAT_END
 95
        2
302
GRIDFORMAT
  1
GRIDFORMAT_BEGIN
 90
        0
 91
        1
 62
     0
 92
       -2
340
0
 93
        0
 40
1.125
309
GRIDFORMAT_END
 95
        4
302
GRIDFORMAT
  1
GRIDFORMAT_BEGIN
 90
        0
 91
        1
 62
     0
 92
       -2
340
0
 93
        0
 40
1.125
309
GRIDFORMAT_END
 95
        8
302
GRIDFORMAT
  1
GRIDFORMAT_BEGIN
 90
        0
 91
        1
 62
     0
 92
       -2
340
0
 93
        0
 40
1.125
309
GRIDFORMAT_END
 95
       16
302
GRIDFORMAT
  1
GRIDFORMAT_BEGIN
 90
        0
 91
        1
 62
     0
 92
       -2
340
0
 93
        0
 40
1.125
309
GRIDFORMAT_END
 95
       32
302
GRIDFORMAT
  1
GRIDFORMAT_BEGIN
 90
        0
 91
        1
 62
     0
 92
       -2
340
0
 93
        0
 40
1.125
309
GRIDFORMAT_END
309
TABLEFORMAT_END
  1
CELLSTYLE_BEGIN
 90
        2
 91
        1
300
_HEADER
309
CELLSTYLE_END
300
CELLSTYLE
  1
TABLEFORMAT_BEGIN
 90
        5
170
     1
 91
        0
 92
        0
 62
   257
 93
        1
300
CONTENTFORMAT
  1
CONTENTFORMAT_BEGIN
 90
        0
 91
        0
 92
      512
 93
        0
300

 40
0.0
140
1.0
 94
        2
 62
     0
340
11
144
4.5
309
CONTENTFORMAT_END
171
     1
301
MARGIN
  1
CELLMARGIN_BEGIN
 40
1.5
 40
1.5
 40
1.5
 40
1.5
 40
4.5
 40
4.5
309
CELLMARGIN_END
 94
        6
 95
        1
302
GRIDFORMAT
  1
GRIDFORMAT_BEGIN
 90
        0
 91
        1
 62
     0
 92
       -2
340
0
 93
        0
 40
1.125
309
GRIDFORMAT_END
 95
        2
302
GRIDFORMAT
  1
GRIDFORMAT_BEGIN
 90
        0
 91
        1
 62
     0
 92
       -2
340
0
 93
        0
 40
1.125
309
GRIDFORMAT_END
 95
        4
302
GRIDFORMAT
  1
GRIDFORMAT_BEGIN
 90
        0
 91
        1
 62
     0
 92
       -2
340
0
 93
        0
 40
1.125
309
GRIDFORMAT_END
 95
        8
302
GRIDFORMAT
  1
GRIDFORMAT_BEGIN
 90
        0
 91
        1
 62
     0
 92
       -2
340
0
 93
        0
 40
1.125
309
GRIDFORMAT_END
 95
       16
302
GRIDFORMAT
  1
GRIDFORMAT_BEGIN
 90
        0
 91
        1
 62
     0
 92
       -2
340
0
 93
        0
 40
1.125
309
GRIDFORMAT_END
 95
       32
302
GRIDFORMAT
  1
GRIDFORMAT_BEGIN
 90
        0
 91
        1
 62
     0
 92
       -2
340
0
 93
        0
 40
1.125
309
GRIDFORMAT_END
309
TABLEFORMAT_END
  1
CELLSTYLE_BEGIN
 90
        3
 91
        2
300
_DATA
309
CELLSTYLE_END
  0
XRECORD
  5
E92
102
{ACAD_REACTORS
330
E91
102
}
330
E91
100
AcDbXrecord
280
     1
102
RTVSPost2010Prop28
280
     1
102
RTVSPost2010PropOp28
 70
     1
102
RTVSPost2010Prop29
280
     1
102
RTVSPost2010PropOp29
 70
     1
102
RTVSPost2010Prop30
280
     0
102
RTVSPost2010PropOp30
 70
     1
102
RTVSPost2010Prop31
280
     0
102
RTVSPost2010PropOp31
 70
     1
102
RTVSPost2010Prop32
280
     0
102
RTVSPost2010PropOp32
 70
     1
102
RTVSPost2010Prop33
280
     0
102
RTVSPost2010PropOp33
 70
     1
102
RTVSPost2010Prop34
280
     0
102
RTVSPost2010PropOp34
 70
     1
102
RTVSPost2010Prop35
280
     0
102
RTVSPost2010PropOp35
 70
     1
102
RTVSPost2010Prop36
280
     0
102
RTVSPost2010PropOp36
 70
     1
102
RTVSPost2010Prop37
 90
       50
102
RTVSPost2010PropOp37
 70
     1
102
RTVSPost2010Prop38
140
0.0
102
RTVSPost2010PropOp38
 70
     1
102
RTVSPost2010Prop39
140
1.0
102
RTVSPost2010PropOp39
 70
     1
102
RTVSPost2010Prop40
 90
        0
102
RTVSPost2010PropOp40
 70
     1
102
RTVSPost2010Prop41ColorIndex
 90
       18
102
RTVSPost2010Prop41ColorRGB
 90
        0
102
RTVSPost2010PropOp41
 70
     1
102
RTVSPost2010Prop42
 90
       50
102
RTVSPost2010PropOp42
 70
     1
102
RTVSPost2010Prop43
 90
        3
102
RTVSPost2010PropOp43
 70
     1
102
RTVSPost2010Prop44ColorIndex
 90
        5
102
RTVSPost2010Prop44ColorRGB
 90
      255
102
RTVSPost2010PropOp44
 70
     1
102
RTVSPost2010Prop45
280
     0
102
RTVSPost2010PropOp45
 70
     1
102
RTVSPost2010Prop46
 90
       50
102
RTVSPost2010PropOp46
 70
     1
102
RTVSPost2010Prop47
 90
       50
102
RTVSPost2010PropOp47
 70
     1
102
RTVSPost2010Prop48
 90
       50
102
RTVSPost2010PropOp48
 70
     1
102
RTVSPost2010Prop49
280
     0
102
RTVSPost2010PropOp49
 70
     1
102
RTVSPost2010Prop50
 90
       50
102
RTVSPost2010PropOp50
 70
     1
102
RTVSPost2010Prop51ColorIndex
 90
      256
102
RTVSPost2010Prop51ColorRGB
 90
-16777216
102
RTVSPost2010PropOp51
 70
     0
102
RTVSPost2010Prop52
140
1.0
102
RTVSPost2010PropOp52
 70
     0
102
RTVSPost2010Prop53
 90
        2
102
RTVSPost2010PropOp53
 70
     1
102
RTVSPost2010Prop54
  1
strokes_ogs.tif
102
RTVSPost2010PropOp54
 70
     1
102
RTVSPost2010Prop55
280
     0
102
RTVSPost2010PropOp55
 70
     1
102
RTVSPost2010Prop56
140
1.0
102
RTVSPost2010PropOp56
 70
     1
102
RTVSPost2010Prop57
140
1.0
102
RTVSPost2010PropOp57
 70
     1
102
RTVSPropertyOp0
 70
     1
102
RTVSPropertyOp1
 70
     1
102
RTVSPropertyOp2
 70
     1
102
RTVSPropertyOp3
 70
     1
102
RTVSPropertyOp4
 70
     1
102
RTVSPropertyOp5
 70
     1
102
RTVSPropertyOp6
 70
     1
102
RTVSPropertyOp7
 70
     1
102
RTVSPropertyOp8
 70
     1
102
RTVSPropertyOp9
 70
     1
102
RTVSPropertyOp10
 70
     1
102
RTVSPropertyOp11
 70
     1
102
RTVSPropertyOp12
 70
     1
102
RTVSPropertyOp13
 70
     1
102
RTVSPropertyOp14
 70
     1
102
RTVSPropertyOp15
 70
     1
102
RTVSPropertyOp16
 70
     1
102
RTVSPropertyOp17
 70
     1
102
RTVSPropertyOp18
 70
     1
102
RTVSPropertyOp19
 70
     1
102
RTVSPropertyOp20
 70
     1
102
RTVSPropertyOp21
 70
     1
102
RTVSPropertyOp22
 70
     1
102
RTVSPropertyOp23
 70
     1
102
RTVSPropertyOp24
 70
     1
102
RTVSPropertyOp25
 70
     1
102
RTVSPropertyOp26
 70
     1
102
RTVSPropertyOp27
 70
     1
102
RTVSPropertyOp28
 70
     1
102
RTVSPropertyOp29
 70
     1
102
RTVSPropertyOp30
 70
     1
102
RTVSPropertyOp31
 70
     1
102
RTVSPropertyOp32
 70
     1
102
RTVSPropertyOp33
 70
     1
102
RTVSPropertyOp34
 70
     1
102
RTVSPropertyOp35
 70
     1
102
RTVSPropertyOp36
 70
     1
102
RTVSPropertyOp37
 70
     1
102
RTVSPropertyOp38
 70
     1
102
RTVSPropertyOp39
 70
     1
102
RTVSPropertyOp40
 70
     1
102
RTVSPropertyOp41
 70
     1
102
RTVSPropertyOp42
 70
     1
102
RTVSPropertyOp43
 70
     1
102
RTVSPropertyOp44
 70
     1
102
RTVSPropertyOp45
 70
     1
102
RTVSPropertyOp46
 70
     1
102
RTVSPropertyOp47
 70
     1
102
RTVSPropertyOp48
 70
     1
102
RTVSPropertyOp49
 70
     1
102
RTVSPropertyOp50
 70
     1
102
RTVSPropertyOp51
 70
     0
102
RTVSPropertyOp52
 70
     0
102
RTVSPropertyOp53
 70
     1
102
RTVSPropertyOp54
 70
     1
102
RTVSPropertyOp55
 70
     1
102
RTVSPropertyOp56
 70
     1
102
RTVSPropertyOp57
 70
     1
102
RTVSPropertyOp58
 70
     1
102
RTVSPropertyOp59
 70
     1
102
RTVSPropertyOp60
 70
     1
102
RTVSPropertyOp61
 70
     1
102
RTVSPropertyOp62
 70
     1
  0
XRECORD
  5
E90
102
{ACAD_REACTORS
330
E8F
102
}
330
E8F
100
AcDbXrecord
280
     1
102
RTVSPost2010Prop28
280
     0
102
RTVSPost2010PropOp28
 70
     1
102
RTVSPost2010Prop29
280
     1
102
RTVSPost2010PropOp29
 70
     1
102
RTVSPost2010Prop30
280
     1
102
RTVSPost2010PropOp30
 70
     1
102
RTVSPost2010Prop31
280
     0
102
RTVSPost2010PropOp31
 70
     1
102
RTVSPost2010Prop32
280
     0
102
RTVSPost2010PropOp32
 70
     1
102
RTVSPost2010Prop33
280
     0
102
RTVSPost2010PropOp33
 70
     1
102
RTVSPost2010Prop34
280
     0
102
RTVSPost2010PropOp34
 70
     1
102
RTVSPost2010Prop35
280
     0
102
RTVSPost2010PropOp35
 70
     1
102
RTVSPost2010Prop36
280
     0
102
RTVSPost2010PropOp36
 70
     1
102
RTVSPost2010Prop37
 90
       50
102
RTVSPost2010PropOp37
 70
     1
102
RTVSPost2010Prop38
140
0.0
102
RTVSPost2010PropOp38
 70
     1
102
RTVSPost2010Prop39
140
1.0
102
RTVSPost2010PropOp39
 70
     1
102
RTVSPost2010Prop40
 90
        0
102
RTVSPost2010PropOp40
 70
     1
102
RTVSPost2010Prop41ColorIndex
 90
       18
102
RTVSPost2010Prop41ColorRGB
 90
        0
102
RTVSPost2010PropOp41
 70
     1
102
RTVSPost2010Prop42
 90
       50
102
RTVSPost2010PropOp42
 70
     1
102
RTVSPost2010Prop43
 90
        3
102
RTVSPost2010PropOp43
 70
     1
102
RTVSPost2010Prop44ColorIndex
 90
        5
102
RTVSPost2010Prop44ColorRGB
 90
      255
102
RTVSPost2010PropOp44
 70
     1
102
RTVSPost2010Prop45
280
     0
102
RTVSPost2010PropOp45
 70
     1
102
RTVSPost2010Prop46
 90
       50
102
RTVSPost2010PropOp46
 70
     1
102
RTVSPost2010Prop47
 90
       50
102
RTVSPost2010PropOp47
 70
     1
102
RTVSPost2010Prop48
 90
       50
102
RTVSPost2010PropOp48
 70
     1
102
RTVSPost2010Prop49
280
     0
102
RTVSPost2010PropOp49
 70
     1
102
RTVSPost2010Prop50
 90
       50
102
RTVSPost2010PropOp50
 70
     1
102
RTVSPost2010Prop51ColorIndex
 90
      256
102
RTVSPost2010Prop51ColorRGB
 90
-16777216
102
RTVSPost2010PropOp51
 70
     0
102
RTVSPost2010Prop52
140
1.0
102
RTVSPost2010PropOp52
 70
     0
102
RTVSPost2010Prop53
 90
        2
102
RTVSPost2010PropOp53
 70
     1
102
RTVSPost2010Prop54
  1
strokes_ogs.tif
102
RTVSPost2010PropOp54
 70
     1
102
RTVSPost2010Prop55
280
     0
102
RTVSPost2010PropOp55
 70
     1
102
RTVSPost2010Prop56
140
1.0
102
RTVSPost2010PropOp56
 70
     1
102
RTVSPost2010Prop57
140
1.0
102
RTVSPost2010PropOp57
 70
     1
102
RTVSPropertyOp0
 70
     1
102
RTVSPropertyOp1
 70
     1
102
RTVSPropertyOp2
 70
     1
102
RTVSPropertyOp3
 70
     1
102
RTVSPropertyOp4
 70
     1
102
RTVSPropertyOp5
 70
     1
102
RTVSPropertyOp6
 70
     1
102
RTVSPropertyOp7
 70
     1
102
RTVSPropertyOp8
 70
     1
102
RTVSPropertyOp9
 70
     1
102
RTVSPropertyOp10
 70
     1
102
RTVSPropertyOp11
 70
     1
102
RTVSPropertyOp12
 70
     1
102
RTVSPropertyOp13
 70
     1
102
RTVSPropertyOp14
 70
     1
102
RTVSPropertyOp15
 70
     1
102
RTVSPropertyOp16
 70
     1
102
RTVSPropertyOp17
 70
     1
102
RTVSPropertyOp18
 70
     1
102
RTVSPropertyOp19
 70
     1
102
RTVSPropertyOp20
 70
     1
102
RTVSPropertyOp21
 70
     1
102
RTVSPropertyOp22
 70
     1
102
RTVSPropertyOp23
 70
     1
102
RTVSPropertyOp24
 70
     1
102
RTVSPropertyOp25
 70
     1
102
RTVSPropertyOp26
 70
     1
102
RTVSPropertyOp27
 70
     1
102
RTVSPropertyOp28
 70
     1
102
RTVSPropertyOp29
 70
     1
102
RTVSPropertyOp30
 70
     1
102
RTVSPropertyOp31
 70
     1
102
RTVSPropertyOp32
 70
     1
102
RTVSPropertyOp33
 70
     1
102
RTVSPropertyOp34
 70
     1
102
RTVSPropertyOp35
 70
     1
102
RTVSPropertyOp36
 70
     1
102
RTVSPropertyOp37
 70
     1
102
RTVSPropertyOp38
 70
     1
102
RTVSPropertyOp39
 70
     1
102
RTVSPropertyOp40
 70
     1
102
RTVSPropertyOp41
 70
     1
102
RTVSPropertyOp42
 70
     1
102
RTVSPropertyOp43
 70
     1
102
RTVSPropertyOp44
 70
     1
102
RTVSPropertyOp45
 70
     1
102
RTVSPropertyOp46
 70
     1
102
RTVSPropertyOp47
 70
     1
102
RTVSPropertyOp48
 70
     1
102
RTVSPropertyOp49
 70
     1
102
RTVSPropertyOp50
 70
     1
102
RTVSPropertyOp51
 70
     0
102
RTVSPropertyOp52
 70
     0
102
RTVSPropertyOp53
 70
     1
102
RTVSPropertyOp54
 70
     1
102
RTVSPropertyOp55
 70
     1
102
RTVSPropertyOp56
 70
     1
102
RTVSPropertyOp57
 70
     1
102
RTVSPropertyOp58
 70
     1
102
RTVSPropertyOp59
 70
     1
102
RTVSPropertyOp60
 70
     1
102
RTVSPropertyOp61
 70
     1
102
RTVSPropertyOp62
 70
     1
  0
XRECORD
  5
E9E
102
{ACAD_REACTORS
330
E9D
102
}
330
E9D
100
AcDbXrecord
280
     1
102
RTVSPost2010Prop28
280
     0
102
RTVSPost2010PropOp28
 70
     1
102
RTVSPost2010Prop29
280
     1
102
RTVSPost2010PropOp29
 70
     1
102
RTVSPost2010Prop30
280
     1
102
RTVSPost2010PropOp30
 70
     1
102
RTVSPost2010Prop31
280
     0
102
RTVSPost2010PropOp31
 70
     1
102
RTVSPost2010Prop32
280
     0
102
RTVSPost2010PropOp32
 70
     1
102
RTVSPost2010Prop33
280
     0
102
RTVSPost2010PropOp33
 70
     1
102
RTVSPost2010Prop34
280
     0
102
RTVSPost2010PropOp34
 70
     1
102
RTVSPost2010Prop35
280
     0
102
RTVSPost2010PropOp35
 70
     1
102
RTVSPost2010Prop36
280
     0
102
RTVSPost2010PropOp36
 70
     1
102
RTVSPost2010Prop37
 90
       50
102
RTVSPost2010PropOp37
 70
     1
102
RTVSPost2010Prop38
140
0.0
102
RTVSPost2010PropOp38
 70
     1
102
RTVSPost2010Prop39
140
1.0
102
RTVSPost2010PropOp39
 70
     1
102
RTVSPost2010Prop40
 90
        0
102
RTVSPost2010PropOp40
 70
     1
102
RTVSPost2010Prop41ColorIndex
 90
       18
102
RTVSPost2010Prop41ColorRGB
 90
        0
102
RTVSPost2010PropOp41
 70
     1
102
RTVSPost2010Prop42
 90
       50
102
RTVSPost2010PropOp42
 70
     1
102
RTVSPost2010Prop43
 90
        3
102
RTVSPost2010PropOp43
 70
     1
102
RTVSPost2010Prop44ColorIndex
 90
        5
102
RTVSPost2010Prop44ColorRGB
 90
      255
102
RTVSPost2010PropOp44
 70
     1
102
RTVSPost2010Prop45
280
     0
102
RTVSPost2010PropOp45
 70
     1
102
RTVSPost2010Prop46
 90
       50
102
RTVSPost2010PropOp46
 70
     1
102
RTVSPost2010Prop47
 90
       50
102
RTVSPost2010PropOp47
 70
     1
102
RTVSPost2010Prop48
 90
       50
102
RTVSPost2010PropOp48
 70
     1
102
RTVSPost2010Prop49
280
     0
102
RTVSPost2010PropOp49
 70
     1
102
RTVSPost2010Prop50
 90
       50
102
RTVSPost2010PropOp50
 70
     1
102
RTVSPost2010Prop51ColorIndex
 90
      256
102
RTVSPost2010Prop51ColorRGB
 90
-16777216
102
RTVSPost2010PropOp51
 70
     0
102
RTVSPost2010Prop52
140
1.0
102
RTVSPost2010PropOp52
 70
     0
102
RTVSPost2010Prop53
 90
        2
102
RTVSPost2010PropOp53
 70
     1
102
RTVSPost2010Prop54
  1
strokes_ogs.tif
102
RTVSPost2010PropOp54
 70
     1
102
RTVSPost2010Prop55
280
     0
102
RTVSPost2010PropOp55
 70
     1
102
RTVSPost2010Prop56
140
1.0
102
RTVSPost2010PropOp56
 70
     1
102
RTVSPost2010Prop57
140
1.0
102
RTVSPost2010PropOp57
 70
     1
102
RTVSPropertyOp0
 70
     1
102
RTVSPropertyOp1
 70
     1
102
RTVSPropertyOp2
 70
     1
102
RTVSPropertyOp3
 70
     1
102
RTVSPropertyOp4
 70
     1
102
RTVSPropertyOp5
 70
     1
102
RTVSPropertyOp6
 70
     1
102
RTVSPropertyOp7
 70
     1
102
RTVSPropertyOp8
 70
     1
102
RTVSPropertyOp9
 70
     1
102
RTVSPropertyOp10
 70
     1
102
RTVSPropertyOp11
 70
     1
102
RTVSPropertyOp12
 70
     1
102
RTVSPropertyOp13
 70
     1
102
RTVSPropertyOp14
 70
     1
102
RTVSPropertyOp15
 70
     1
102
RTVSPropertyOp16
 70
     1
102
RTVSPropertyOp17
 70
     1
102
RTVSPropertyOp18
 70
     1
102
RTVSPropertyOp19
 70
     1
102
RTVSPropertyOp20
 70
     1
102
RTVSPropertyOp21
 70
     1
102
RTVSPropertyOp22
 70
     1
102
RTVSPropertyOp23
 70
     1
102
RTVSPropertyOp24
 70
     1
102
RTVSPropertyOp25
 70
     1
102
RTVSPropertyOp26
 70
     1
102
RTVSPropertyOp27
 70
     1
102
RTVSPropertyOp28
 70
     1
102
RTVSPropertyOp29
 70
     1
102
RTVSPropertyOp30
 70
     1
102
RTVSPropertyOp31
 70
     1
102
RTVSPropertyOp32
 70
     1
102
RTVSPropertyOp33
 70
     1
102
RTVSPropertyOp34
 70
     1
102
RTVSPropertyOp35
 70
     1
102
RTVSPropertyOp36
 70
     1
102
RTVSPropertyOp37
 70
     1
102
RTVSPropertyOp38
 70
     1
102
RTVSPropertyOp39
 70
     1
102
RTVSPropertyOp40
 70
     1
102
RTVSPropertyOp41
 70
     1
102
RTVSPropertyOp42
 70
     1
102
RTVSPropertyOp43
 70
     1
102
RTVSPropertyOp44
 70
     1
102
RTVSPropertyOp45
 70
     1
102
RTVSPropertyOp46
 70
     1
102
RTVSPropertyOp47
 70
     1
102
RTVSPropertyOp48
 70
     1
102
RTVSPropertyOp49
 70
     1
102
RTVSPropertyOp50
 70
     1
102
RTVSPropertyOp51
 70
     0
102
RTVSPropertyOp52
 70
     0
102
RTVSPropertyOp53
 70
     1
102
RTVSPropertyOp54
 70
     1
102
RTVSPropertyOp55
 70
     1
102
RTVSPropertyOp56
 70
     1
102
RTVSPropertyOp57
 70
     1
102
RTVSPropertyOp58
 70
     1
102
RTVSPropertyOp59
 70
     1
102
RTVSPropertyOp60
 70
     1
102
RTVSPropertyOp61
 70
     1
102
RTVSPropertyOp62
 70
     1
  0
XRECORD
  5
EA6
102
{ACAD_REACTORS
330
EA5
102
}
330
EA5
100
AcDbXrecord
280
     1
102
RTVSPost2010Prop28
280
     0
102
RTVSPost2010PropOp28
 70
     1
102
RTVSPost2010Prop29
280
     1
102
RTVSPost2010PropOp29
 70
     1
102
RTVSPost2010Prop30
280
     1
102
RTVSPost2010PropOp30
 70
     1
102
RTVSPost2010Prop31
280
     0
102
RTVSPost2010PropOp31
 70
     1
102
RTVSPost2010Prop32
280
     0
102
RTVSPost2010PropOp32
 70
     1
102
RTVSPost2010Prop33
280
     0
102
RTVSPost2010PropOp33
 70
     1
102
RTVSPost2010Prop34
280
     0
102
RTVSPost2010PropOp34
 70
     1
102
RTVSPost2010Prop35
280
     0
102
RTVSPost2010PropOp35
 70
     1
102
RTVSPost2010Prop36
280
     0
102
RTVSPost2010PropOp36
 70
     1
102
RTVSPost2010Prop37
 90
       50
102
RTVSPost2010PropOp37
 70
     1
102
RTVSPost2010Prop38
140
0.0
102
RTVSPost2010PropOp38
 70
     1
102
RTVSPost2010Prop39
140
1.0
102
RTVSPost2010PropOp39
 70
     1
102
RTVSPost2010Prop40
 90
        0
102
RTVSPost2010PropOp40
 70
     1
102
RTVSPost2010Prop41ColorIndex
 90
       18
102
RTVSPost2010Prop41ColorRGB
 90
        0
102
RTVSPost2010PropOp41
 70
     1
102
RTVSPost2010Prop42
 90
       50
102
RTVSPost2010PropOp42
 70
     1
102
RTVSPost2010Prop43
 90
        3
102
RTVSPost2010PropOp43
 70
     1
102
RTVSPost2010Prop44ColorIndex
 90
        5
102
RTVSPost2010Prop44ColorRGB
 90
      255
102
RTVSPost2010PropOp44
 70
     1
102
RTVSPost2010Prop45
280
     0
102
RTVSPost2010PropOp45
 70
     1
102
RTVSPost2010Prop46
 90
       50
102
RTVSPost2010PropOp46
 70
     1
102
RTVSPost2010Prop47
 90
       50
102
RTVSPost2010PropOp47
 70
     1
102
RTVSPost2010Prop48
 90
       50
102
RTVSPost2010PropOp48
 70
     1
102
RTVSPost2010Prop49
280
     0
102
RTVSPost2010PropOp49
 70
     1
102
RTVSPost2010Prop50
 90
       50
102
RTVSPost2010PropOp50
 70
     1
102
RTVSPost2010Prop51ColorIndex
 90
      256
102
RTVSPost2010Prop51ColorRGB
 90
-16777216
102
RTVSPost2010PropOp51
 70
     0
102
RTVSPost2010Prop52
140
1.0
102
RTVSPost2010PropOp52
 70
     0
102
RTVSPost2010Prop53
 90
        2
102
RTVSPost2010PropOp53
 70
     1
102
RTVSPost2010Prop54
  1
strokes_ogs.tif
102
RTVSPost2010PropOp54
 70
     1
102
RTVSPost2010Prop55
280
     0
102
RTVSPost2010PropOp55
 70
     1
102
RTVSPost2010Prop56
140
1.0
102
RTVSPost2010PropOp56
 70
     1
102
RTVSPost2010Prop57
140
1.0
102
RTVSPost2010PropOp57
 70
     1
102
RTVSPropertyOp0
 70
     1
102
RTVSPropertyOp1
 70
     1
102
RTVSPropertyOp2
 70
     1
102
RTVSPropertyOp3
 70
     1
102
RTVSPropertyOp4
 70
     1
102
RTVSPropertyOp5
 70
     1
102
RTVSPropertyOp6
 70
     1
102
RTVSPropertyOp7
 70
     1
102
RTVSPropertyOp8
 70
     1
102
RTVSPropertyOp9
 70
     1
102
RTVSPropertyOp10
 70
     1
102
RTVSPropertyOp11
 70
     1
102
RTVSPropertyOp12
 70
     1
102
RTVSPropertyOp13
 70
     1
102
RTVSPropertyOp14
 70
     1
102
RTVSPropertyOp15
 70
     1
102
RTVSPropertyOp16
 70
     1
102
RTVSPropertyOp17
 70
     1
102
RTVSPropertyOp18
 70
     1
102
RTVSPropertyOp19
 70
     1
102
RTVSPropertyOp20
 70
     1
102
RTVSPropertyOp21
 70
     1
102
RTVSPropertyOp22
 70
     1
102
RTVSPropertyOp23
 70
     1
102
RTVSPropertyOp24
 70
     1
102
RTVSPropertyOp25
 70
     1
102
RTVSPropertyOp26
 70
     1
102
RTVSPropertyOp27
 70
     1
102
RTVSPropertyOp28
 70
     1
102
RTVSPropertyOp29
 70
     1
102
RTVSPropertyOp30
 70
     1
102
RTVSPropertyOp31
 70
     1
102
RTVSPropertyOp32
 70
     1
102
RTVSPropertyOp33
 70
     1
102
RTVSPropertyOp34
 70
     1
102
RTVSPropertyOp35
 70
     1
102
RTVSPropertyOp36
 70
     1
102
RTVSPropertyOp37
 70
     1
102
RTVSPropertyOp38
 70
     1
102
RTVSPropertyOp39
 70
     1
102
RTVSPropertyOp40
 70
     1
102
RTVSPropertyOp41
 70
     1
102
RTVSPropertyOp42
 70
     1
102
RTVSPropertyOp43
 70
     1
102
RTVSPropertyOp44
 70
     1
102
RTVSPropertyOp45
 70
     1
102
RTVSPropertyOp46
 70
     1
102
RTVSPropertyOp47
 70
     1
102
RTVSPropertyOp48
 70
     1
102
RTVSPropertyOp49
 70
     1
102
RTVSPropertyOp50
 70
     1
102
RTVSPropertyOp51
 70
     0
102
RTVSPropertyOp52
 70
     0
102
RTVSPropertyOp53
 70
     1
102
RTVSPropertyOp54
 70
     1
102
RTVSPropertyOp55
 70
     1
102
RTVSPropertyOp56
 70
     1
102
RTVSPropertyOp57
 70
     1
102
RTVSPropertyOp58
 70
     1
102
RTVSPropertyOp59
 70
     1
102
RTVSPropertyOp60
 70
     1
102
RTVSPropertyOp61
 70
     1
102
RTVSPropertyOp62
 70
     1
  0
XRECORD
  5
E98
102
{ACAD_REACTORS
330
E97
102
}
330
E97
100
AcDbXrecord
280
     1
102
RTVSPost2010Prop28
280
     0
102
RTVSPost2010PropOp28
 70
     1
102
RTVSPost2010Prop29
280
     1
102
RTVSPost2010PropOp29
 70
     1
102
RTVSPost2010Prop30
280
     1
102
RTVSPost2010PropOp30
 70
     1
102
RTVSPost2010Prop31
280
     0
102
RTVSPost2010PropOp31
 70
     1
102
RTVSPost2010Prop32
280
     0
102
RTVSPost2010PropOp32
 70
     1
102
RTVSPost2010Prop33
280
     0
102
RTVSPost2010PropOp33
 70
     1
102
RTVSPost2010Prop34
280
     0
102
RTVSPost2010PropOp34
 70
     1
102
RTVSPost2010Prop35
280
     0
102
RTVSPost2010PropOp35
 70
     1
102
RTVSPost2010Prop36
280
     0
102
RTVSPost2010PropOp36
 70
     1
102
RTVSPost2010Prop37
 90
       50
102
RTVSPost2010PropOp37
 70
     1
102
RTVSPost2010Prop38
140
0.0
102
RTVSPost2010PropOp38
 70
     1
102
RTVSPost2010Prop39
140
1.0
102
RTVSPost2010PropOp39
 70
     1
102
RTVSPost2010Prop40
 90
        0
102
RTVSPost2010PropOp40
 70
     1
102
RTVSPost2010Prop41ColorIndex
 90
       18
102
RTVSPost2010Prop41ColorRGB
 90
        0
102
RTVSPost2010PropOp41
 70
     1
102
RTVSPost2010Prop42
 90
       50
102
RTVSPost2010PropOp42
 70
     1
102
RTVSPost2010Prop43
 90
        3
102
RTVSPost2010PropOp43
 70
     1
102
RTVSPost2010Prop44ColorIndex
 90
        5
102
RTVSPost2010Prop44ColorRGB
 90
      255
102
RTVSPost2010PropOp44
 70
     1
102
RTVSPost2010Prop45
280
     0
102
RTVSPost2010PropOp45
 70
     1
102
RTVSPost2010Prop46
 90
       50
102
RTVSPost2010PropOp46
 70
     1
102
RTVSPost2010Prop47
 90
       50
102
RTVSPost2010PropOp47
 70
     1
102
RTVSPost2010Prop48
 90
       50
102
RTVSPost2010PropOp48
 70
     1
102
RTVSPost2010Prop49
280
     0
102
RTVSPost2010PropOp49
 70
     1
102
RTVSPost2010Prop50
 90
       50
102
RTVSPost2010PropOp50
 70
     1
102
RTVSPost2010Prop51ColorIndex
 90
      256
102
RTVSPost2010Prop51ColorRGB
 90
-16777216
102
RTVSPost2010PropOp51
 70
     0
102
RTVSPost2010Prop52
140
1.0
102
RTVSPost2010PropOp52
 70
     0
102
RTVSPost2010Prop53
 90
        2
102
RTVSPost2010PropOp53
 70
     1
102
RTVSPost2010Prop54
  1
strokes_ogs.tif
102
RTVSPost2010PropOp54
 70
     1
102
RTVSPost2010Prop55
280
     0
102
RTVSPost2010PropOp55
 70
     1
102
RTVSPost2010Prop56
140
1.0
102
RTVSPost2010PropOp56
 70
     1
102
RTVSPost2010Prop57
140
1.0
102
RTVSPost2010PropOp57
 70
     1
102
RTVSPropertyOp0
 70
     1
102
RTVSPropertyOp1
 70
     1
102
RTVSPropertyOp2
 70
     1
102
RTVSPropertyOp3
 70
     1
102
RTVSPropertyOp4
 70
     1
102
RTVSPropertyOp5
 70
     1
102
RTVSPropertyOp6
 70
     1
102
RTVSPropertyOp7
 70
     1
102
RTVSPropertyOp8
 70
     1
102
RTVSPropertyOp9
 70
     1
102
RTVSPropertyOp10
 70
     1
102
RTVSPropertyOp11
 70
     1
102
RTVSPropertyOp12
 70
     1
102
RTVSPropertyOp13
 70
     1
102
RTVSPropertyOp14
 70
     1
102
RTVSPropertyOp15
 70
     1
102
RTVSPropertyOp16
 70
     1
102
RTVSPropertyOp17
 70
     1
102
RTVSPropertyOp18
 70
     1
102
RTVSPropertyOp19
 70
     1
102
RTVSPropertyOp20
 70
     1
102
RTVSPropertyOp21
 70
     1
102
RTVSPropertyOp22
 70
     1
102
RTVSPropertyOp23
 70
     1
102
RTVSPropertyOp24
 70
     1
102
RTVSPropertyOp25
 70
     1
102
RTVSPropertyOp26
 70
     1
102
RTVSPropertyOp27
 70
     1
102
RTVSPropertyOp28
 70
     1
102
RTVSPropertyOp29
 70
     1
102
RTVSPropertyOp30
 70
     1
102
RTVSPropertyOp31
 70
     1
102
RTVSPropertyOp32
 70
     1
102
RTVSPropertyOp33
 70
     1
102
RTVSPropertyOp34
 70
     1
102
RTVSPropertyOp35
 70
     1
102
RTVSPropertyOp36
 70
     1
102
RTVSPropertyOp37
 70
     1
102
RTVSPropertyOp38
 70
     1
102
RTVSPropertyOp39
 70
     1
102
RTVSPropertyOp40
 70
     1
102
RTVSPropertyOp41
 70
     1
102
RTVSPropertyOp42
 70
     1
102
RTVSPropertyOp43
 70
     1
102
RTVSPropertyOp44
 70
     1
102
RTVSPropertyOp45
 70
     1
102
RTVSPropertyOp46
 70
     1
102
RTVSPropertyOp47
 70
     1
102
RTVSPropertyOp48
 70
     1
102
RTVSPropertyOp49
 70
     1
102
RTVSPropertyOp50
 70
     1
102
RTVSPropertyOp51
 70
     0
102
RTVSPropertyOp52
 70
     0
102
RTVSPropertyOp53
 70
     1
102
RTVSPropertyOp54
 70
     1
102
RTVSPropertyOp55
 70
     1
102
RTVSPropertyOp56
 70
     1
102
RTVSPropertyOp57
 70
     1
102
RTVSPropertyOp58
 70
     1
102
RTVSPropertyOp59
 70
     1
102
RTVSPropertyOp60
 70
     1
102
RTVSPropertyOp61
 70
     1
102
RTVSPropertyOp62
 70
     1
  0
XRECORD
  5
E9C
102
{ACAD_REACTORS
330
E9B
102
}
330
E9B
100
AcDbXrecord
280
     1
102
RTVSPost2010Prop28
280
     0
102
RTVSPost2010PropOp28
 70
     1
102
RTVSPost2010Prop29
280
     1
102
RTVSPost2010PropOp29
 70
     1
102
RTVSPost2010Prop30
280
     1
102
RTVSPost2010PropOp30
 70
     1
102
RTVSPost2010Prop31
280
     0
102
RTVSPost2010PropOp31
 70
     1
102
RTVSPost2010Prop32
280
     0
102
RTVSPost2010PropOp32
 70
     1
102
RTVSPost2010Prop33
280
     0
102
RTVSPost2010PropOp33
 70
     1
102
RTVSPost2010Prop34
280
     0
102
RTVSPost2010PropOp34
 70
     1
102
RTVSPost2010Prop35
280
     0
102
RTVSPost2010PropOp35
 70
     1
102
RTVSPost2010Prop36
280
     0
102
RTVSPost2010PropOp36
 70
     1
102
RTVSPost2010Prop37
 90
       50
102
RTVSPost2010PropOp37
 70
     1
102
RTVSPost2010Prop38
140
0.0
102
RTVSPost2010PropOp38
 70
     1
102
RTVSPost2010Prop39
140
1.0
102
RTVSPost2010PropOp39
 70
     1
102
RTVSPost2010Prop40
 90
        0
102
RTVSPost2010PropOp40
 70
     1
102
RTVSPost2010Prop41ColorIndex
 90
       18
102
RTVSPost2010Prop41ColorRGB
 90
        0
102
RTVSPost2010PropOp41
 70
     1
102
RTVSPost2010Prop42
 90
       50
102
RTVSPost2010PropOp42
 70
     1
102
RTVSPost2010Prop43
 90
        3
102
RTVSPost2010PropOp43
 70
     1
102
RTVSPost2010Prop44ColorIndex
 90
        5
102
RTVSPost2010Prop44ColorRGB
 90
      255
102
RTVSPost2010PropOp44
 70
     1
102
RTVSPost2010Prop45
280
     0
102
RTVSPost2010PropOp45
 70
     1
102
RTVSPost2010Prop46
 90
       50
102
RTVSPost2010PropOp46
 70
     1
102
RTVSPost2010Prop47
 90
       50
102
RTVSPost2010PropOp47
 70
     1
102
RTVSPost2010Prop48
 90
       50
102
RTVSPost2010PropOp48
 70
     1
102
RTVSPost2010Prop49
280
     0
102
RTVSPost2010PropOp49
 70
     1
102
RTVSPost2010Prop50
 90
       50
102
RTVSPost2010PropOp50
 70
     1
102
RTVSPost2010Prop51ColorIndex
 90
      256
102
RTVSPost2010Prop51ColorRGB
 90
-16777216
102
RTVSPost2010PropOp51
 70
     0
102
RTVSPost2010Prop52
140
1.0
102
RTVSPost2010PropOp52
 70
     0
102
RTVSPost2010Prop53
 90
        2
102
RTVSPost2010PropOp53
 70
     1
102
RTVSPost2010Prop54
  1
strokes_ogs.tif
102
RTVSPost2010PropOp54
 70
     1
102
RTVSPost2010Prop55
280
     0
102
RTVSPost2010PropOp55
 70
     1
102
RTVSPost2010Prop56
140
1.0
102
RTVSPost2010PropOp56
 70
     1
102
RTVSPost2010Prop57
140
1.0
102
RTVSPost2010PropOp57
 70
     1
102
RTVSPropertyOp0
 70
     1
102
RTVSPropertyOp1
 70
     1
102
RTVSPropertyOp2
 70
     1
102
RTVSPropertyOp3
 70
     1
102
RTVSPropertyOp4
 70
     1
102
RTVSPropertyOp5
 70
     1
102
RTVSPropertyOp6
 70
     1
102
RTVSPropertyOp7
 70
     1
102
RTVSPropertyOp8
 70
     1
102
RTVSPropertyOp9
 70
     1
102
RTVSPropertyOp10
 70
     1
102
RTVSPropertyOp11
 70
     1
102
RTVSPropertyOp12
 70
     1
102
RTVSPropertyOp13
 70
     1
102
RTVSPropertyOp14
 70
     1
102
RTVSPropertyOp15
 70
     1
102
RTVSPropertyOp16
 70
     1
102
RTVSPropertyOp17
 70
     1
102
RTVSPropertyOp18
 70
     1
102
RTVSPropertyOp19
 70
     1
102
RTVSPropertyOp20
 70
     1
102
RTVSPropertyOp21
 70
     1
102
RTVSPropertyOp22
 70
     1
102
RTVSPropertyOp23
 70
     1
102
RTVSPropertyOp24
 70
     1
102
RTVSPropertyOp25
 70
     1
102
RTVSPropertyOp26
 70
     1
102
RTVSPropertyOp27
 70
     1
102
RTVSPropertyOp28
 70
     1
102
RTVSPropertyOp29
 70
     1
102
RTVSPropertyOp30
 70
     1
102
RTVSPropertyOp31
 70
     1
102
RTVSPropertyOp32
 70
     1
102
RTVSPropertyOp33
 70
     1
102
RTVSPropertyOp34
 70
     1
102
RTVSPropertyOp35
 70
     1
102
RTVSPropertyOp36
 70
     1
102
RTVSPropertyOp37
 70
     1
102
RTVSPropertyOp38
 70
     1
102
RTVSPropertyOp39
 70
     1
102
RTVSPropertyOp40
 70
     1
102
RTVSPropertyOp41
 70
     1
102
RTVSPropertyOp42
 70
     1
102
RTVSPropertyOp43
 70
     1
102
RTVSPropertyOp44
 70
     1
102
RTVSPropertyOp45
 70
     1
102
RTVSPropertyOp46
 70
     1
102
RTVSPropertyOp47
 70
     1
102
RTVSPropertyOp48
 70
     1
102
RTVSPropertyOp49
 70
     1
102
RTVSPropertyOp50
 70
     1
102
RTVSPropertyOp51
 70
     0
102
RTVSPropertyOp52
 70
     0
102
RTVSPropertyOp53
 70
     1
102
RTVSPropertyOp54
 70
     1
102
RTVSPropertyOp55
 70
     1
102
RTVSPropertyOp56
 70
     1
102
RTVSPropertyOp57
 70
     1
102
RTVSPropertyOp58
 70
     1
102
RTVSPropertyOp59
 70
     1
102
RTVSPropertyOp60
 70
     1
102
RTVSPropertyOp61
 70
     1
102
RTVSPropertyOp62
 70
     1
  0
XRECORD
  5
EB6
102
{ACAD_REACTORS
330
EB5
102
}
330
EB5
100
AcDbXrecord
280
     1
102
RTVSPost2010Prop28
280
     0
102
RTVSPost2010PropOp28
 70
     0
102
RTVSPost2010Prop29
280
     1
102
RTVSPost2010PropOp29
 70
     0
102
RTVSPost2010Prop30
280
     1
102
RTVSPost2010PropOp30
 70
     0
102
RTVSPost2010Prop31
280
     0
102
RTVSPost2010PropOp31
 70
     0
102
RTVSPost2010Prop32
280
     0
102
RTVSPost2010PropOp32
 70
     0
102
RTVSPost2010Prop33
280
     0
102
RTVSPost2010PropOp33
 70
     0
102
RTVSPost2010Prop34
280
     0
102
RTVSPost2010PropOp34
 70
     0
102
RTVSPost2010Prop35
280
     0
102
RTVSPost2010PropOp35
 70
     0
102
RTVSPost2010Prop36
280
     0
102
RTVSPost2010PropOp36
 70
     0
102
RTVSPost2010Prop37
 90
       50
102
RTVSPost2010PropOp37
 70
     0
102
RTVSPost2010Prop38
140
0.0
102
RTVSPost2010PropOp38
 70
     0
102
RTVSPost2010Prop39
140
1.0
102
RTVSPost2010PropOp39
 70
     0
102
RTVSPost2010Prop40
 90
        0
102
RTVSPost2010PropOp40
 70
     0
102
RTVSPost2010Prop41ColorIndex
 90
       18
102
RTVSPost2010Prop41ColorRGB
 90
        0
102
RTVSPost2010PropOp41
 70
     0
102
RTVSPost2010Prop42
 90
       50
102
RTVSPost2010PropOp42
 70
     0
102
RTVSPost2010Prop43
 90
        3
102
RTVSPost2010PropOp43
 70
     0
102
RTVSPost2010Prop44ColorIndex
 90
        5
102
RTVSPost2010Prop44ColorRGB
 90
      255
102
RTVSPost2010PropOp44
 70
     0
102
RTVSPost2010Prop45
280
     0
102
RTVSPost2010PropOp45
 70
     0
102
RTVSPost2010Prop46
 90
       50
102
RTVSPost2010PropOp46
 70
     0
102
RTVSPost2010Prop47
 90
       50
102
RTVSPost2010PropOp47
 70
     0
102
RTVSPost2010Prop48
 90
       50
102
RTVSPost2010PropOp48
 70
     0
102
RTVSPost2010Prop49
280
     0
102
RTVSPost2010PropOp49
 70
     0
102
RTVSPost2010Prop50
 90
       50
102
RTVSPost2010PropOp50
 70
     0
102
RTVSPost2010Prop51ColorIndex
 90
      256
102
RTVSPost2010Prop51ColorRGB
 90
-16777216
102
RTVSPost2010PropOp51
 70
     0
102
RTVSPost2010Prop52
140
1.0
102
RTVSPost2010PropOp52
 70
     0
102
RTVSPost2010Prop53
 90
        2
102
RTVSPost2010PropOp53
 70
     0
102
RTVSPost2010Prop54
  1
strokes_ogs.tif
102
RTVSPost2010PropOp54
 70
     0
102
RTVSPost2010Prop55
280
     0
102
RTVSPost2010PropOp55
 70
     0
102
RTVSPost2010Prop56
140
1.0
102
RTVSPost2010PropOp56
 70
     0
102
RTVSPost2010Prop57
140
1.0
102
RTVSPost2010PropOp57
 70
     0
102
RTVSPropertyOp0
 70
     0
102
RTVSPropertyOp1
 70
     0
102
RTVSPropertyOp2
 70
     0
102
RTVSPropertyOp3
 70
     0
102
RTVSPropertyOp4
 70
     0
102
RTVSPropertyOp5
 70
     0
102
RTVSPropertyOp6
 70
     0
102
RTVSPropertyOp7
 70
     0
102
RTVSPropertyOp8
 70
     0
102
RTVSPropertyOp9
 70
     0
102
RTVSPropertyOp10
 70
     0
102
RTVSPropertyOp11
 70
     0
102
RTVSPropertyOp12
 70
     0
102
RTVSPropertyOp13
 70
     0
102
RTVSPropertyOp14
 70
     2
102
RTVSPropertyOp15
 70
     0
102
RTVSPropertyOp16
 70
     0
102
RTVSPropertyOp17
 70
     0
102
RTVSPropertyOp18
 70
     0
102
RTVSPropertyOp19
 70
     0
102
RTVSPropertyOp20
 70
     0
102
RTVSPropertyOp21
 70
     0
102
RTVSPropertyOp22
 70
     0
102
RTVSPropertyOp23
 70
     0
102
RTVSPropertyOp24
 70
     0
102
RTVSPropertyOp25
 70
     0
102
RTVSPropertyOp26
 70
     0
102
RTVSPropertyOp27
 70
     0
102
RTVSPropertyOp28
 70
     0
102
RTVSPropertyOp29
 70
     0
102
RTVSPropertyOp30
 70
     0
102
RTVSPropertyOp31
 70
     0
102
RTVSPropertyOp32
 70
     0
102
RTVSPropertyOp33
 70
     0
102
RTVSPropertyOp34
 70
     0
102
RTVSPropertyOp35
 70
     0
102
RTVSPropertyOp36
 70
     0
102
RTVSPropertyOp37
 70
     0
102
RTVSPropertyOp38
 70
     0
102
RTVSPropertyOp39
 70
     0
102
RTVSPropertyOp40
 70
     0
102
RTVSPropertyOp41
 70
     0
102
RTVSPropertyOp42
 70
     0
102
RTVSPropertyOp43
 70
     0
102
RTVSPropertyOp44
 70
     0
102
RTVSPropertyOp45
 70
     0
102
RTVSPropertyOp46
 70
     0
102
RTVSPropertyOp47
 70
     0
102
RTVSPropertyOp48
 70
     0
102
RTVSPropertyOp49
 70
     0
102
RTVSPropertyOp50
 70
     0
102
RTVSPropertyOp51
 70
     0
102
RTVSPropertyOp52
 70
     0
102
RTVSPropertyOp53
 70
     0
102
RTVSPropertyOp54
 70
     0
102
RTVSPropertyOp55
 70
     0
102
RTVSPropertyOp56
 70
     0
102
RTVSPropertyOp57
 70
     0
102
RTVSPropertyOp58
 70
     1
102
RTVSPropertyOp59
 70
     1
102
RTVSPropertyOp60
 70
     1
102
RTVSPropertyOp61
 70
     1
102
RTVSPropertyOp62
 70
     1
  0
XRECORD
  5
EA4
102
{ACAD_REACTORS
330
EA3
102
}
330
EA3
100
AcDbXrecord
280
     1
102
RTVSPost2010Prop28
280
     0
102
RTVSPost2010PropOp28
 70
     1
102
RTVSPost2010Prop29
280
     1
102
RTVSPost2010PropOp29
 70
     1
102
RTVSPost2010Prop30
280
     1
102
RTVSPost2010PropOp30
 70
     1
102
RTVSPost2010Prop31
280
     0
102
RTVSPost2010PropOp31
 70
     1
102
RTVSPost2010Prop32
280
     0
102
RTVSPost2010PropOp32
 70
     1
102
RTVSPost2010Prop33
280
     0
102
RTVSPost2010PropOp33
 70
     1
102
RTVSPost2010Prop34
280
     0
102
RTVSPost2010PropOp34
 70
     1
102
RTVSPost2010Prop35
280
     0
102
RTVSPost2010PropOp35
 70
     1
102
RTVSPost2010Prop36
280
     0
102
RTVSPost2010PropOp36
 70
     1
102
RTVSPost2010Prop37
 90
       50
102
RTVSPost2010PropOp37
 70
     1
102
RTVSPost2010Prop38
140
0.0
102
RTVSPost2010PropOp38
 70
     1
102
RTVSPost2010Prop39
140
1.0
102
RTVSPost2010PropOp39
 70
     1
102
RTVSPost2010Prop40
 90
        0
102
RTVSPost2010PropOp40
 70
     1
102
RTVSPost2010Prop41ColorIndex
 90
       18
102
RTVSPost2010Prop41ColorRGB
 90
        0
102
RTVSPost2010PropOp41
 70
     1
102
RTVSPost2010Prop42
 90
       50
102
RTVSPost2010PropOp42
 70
     1
102
RTVSPost2010Prop43
 90
        3
102
RTVSPost2010PropOp43
 70
     1
102
RTVSPost2010Prop44ColorIndex
 90
        5
102
RTVSPost2010Prop44ColorRGB
 90
      255
102
RTVSPost2010PropOp44
 70
     1
102
RTVSPost2010Prop45
280
     0
102
RTVSPost2010PropOp45
 70
     1
102
RTVSPost2010Prop46
 90
       50
102
RTVSPost2010PropOp46
 70
     1
102
RTVSPost2010Prop47
 90
       50
102
RTVSPost2010PropOp47
 70
     1
102
RTVSPost2010Prop48
 90
       50
102
RTVSPost2010PropOp48
 70
     1
102
RTVSPost2010Prop49
280
     0
102
RTVSPost2010PropOp49
 70
     1
102
RTVSPost2010Prop50
 90
       50
102
RTVSPost2010PropOp50
 70
     1
102
RTVSPost2010Prop51ColorIndex
 90
      256
102
RTVSPost2010Prop51ColorRGB
 90
-16777216
102
RTVSPost2010PropOp51
 70
     0
102
RTVSPost2010Prop52
140
1.0
102
RTVSPost2010PropOp52
 70
     0
102
RTVSPost2010Prop53
 90
        2
102
RTVSPost2010PropOp53
 70
     1
102
RTVSPost2010Prop54
  1
strokes_ogs.tif
102
RTVSPost2010PropOp54
 70
     1
102
RTVSPost2010Prop55
280
     0
102
RTVSPost2010PropOp55
 70
     1
102
RTVSPost2010Prop56
140
1.0
102
RTVSPost2010PropOp56
 70
     1
102
RTVSPost2010Prop57
140
1.0
102
RTVSPost2010PropOp57
 70
     1
102
RTVSPropertyOp0
 70
     1
102
RTVSPropertyOp1
 70
     1
102
RTVSPropertyOp2
 70
     1
102
RTVSPropertyOp3
 70
     1
102
RTVSPropertyOp4
 70
     1
102
RTVSPropertyOp5
 70
     1
102
RTVSPropertyOp6
 70
     1
102
RTVSPropertyOp7
 70
     1
102
RTVSPropertyOp8
 70
     1
102
RTVSPropertyOp9
 70
     1
102
RTVSPropertyOp10
 70
     1
102
RTVSPropertyOp11
 70
     1
102
RTVSPropertyOp12
 70
     1
102
RTVSPropertyOp13
 70
     1
102
RTVSPropertyOp14
 70
     1
102
RTVSPropertyOp15
 70
     1
102
RTVSPropertyOp16
 70
     1
102
RTVSPropertyOp17
 70
     1
102
RTVSPropertyOp18
 70
     1
102
RTVSPropertyOp19
 70
     1
102
RTVSPropertyOp20
 70
     1
102
RTVSPropertyOp21
 70
     1
102
RTVSPropertyOp22
 70
     1
102
RTVSPropertyOp23
 70
     1
102
RTVSPropertyOp24
 70
     1
102
RTVSPropertyOp25
 70
     1
102
RTVSPropertyOp26
 70
     1
102
RTVSPropertyOp27
 70
     1
102
RTVSPropertyOp28
 70
     1
102
RTVSPropertyOp29
 70
     1
102
RTVSPropertyOp30
 70
     1
102
RTVSPropertyOp31
 70
     1
102
RTVSPropertyOp32
 70
     1
102
RTVSPropertyOp33
 70
     1
102
RTVSPropertyOp34
 70
     1
102
RTVSPropertyOp35
 70
     1
102
RTVSPropertyOp36
 70
     1
102
RTVSPropertyOp37
 70
     1
102
RTVSPropertyOp38
 70
     1
102
RTVSPropertyOp39
 70
     1
102
RTVSPropertyOp40
 70
     1
102
RTVSPropertyOp41
 70
     1
102
RTVSPropertyOp42
 70
     1
102
RTVSPropertyOp43
 70
     1
102
RTVSPropertyOp44
 70
     1
102
RTVSPropertyOp45
 70
     1
102
RTVSPropertyOp46
 70
     1
102
RTVSPropertyOp47
 70
     1
102
RTVSPropertyOp48
 70
     1
102
RTVSPropertyOp49
 70
     1
102
RTVSPropertyOp50
 70
     1
102
RTVSPropertyOp51
 70
     0
102
RTVSPropertyOp52
 70
     0
102
RTVSPropertyOp53
 70
     1
102
RTVSPropertyOp54
 70
     1
102
RTVSPropertyOp55
 70
     1
102
RTVSPropertyOp56
 70
     1
102
RTVSPropertyOp57
 70
     1
102
RTVSPropertyOp58
 70
     1
102
RTVSPropertyOp59
 70
     1
102
RTVSPropertyOp60
 70
     1
102
RTVSPropertyOp61
 70
     1
102
RTVSPropertyOp62
 70
     1
  0
XRECORD
  5
E88
102
{ACAD_REACTORS
330
E87
102
}
330
E87
100
AcDbXrecord
280
     1
102
RTVSPost2010Prop28
280
     0
102
RTVSPost2010PropOp28
 70
     1
102
RTVSPost2010Prop29
280
     1
102
RTVSPost2010PropOp29
 70
     1
102
RTVSPost2010Prop30
280
     1
102
RTVSPost2010PropOp30
 70
     1
102
RTVSPost2010Prop31
280
     0
102
RTVSPost2010PropOp31
 70
     1
102
RTVSPost2010Prop32
280
     0
102
RTVSPost2010PropOp32
 70
     1
102
RTVSPost2010Prop33
280
     0
102
RTVSPost2010PropOp33
 70
     1
102
RTVSPost2010Prop34
280
     0
102
RTVSPost2010PropOp34
 70
     1
102
RTVSPost2010Prop35
280
     0
102
RTVSPost2010PropOp35
 70
     1
102
RTVSPost2010Prop36
280
     0
102
RTVSPost2010PropOp36
 70
     1
102
RTVSPost2010Prop37
 90
       50
102
RTVSPost2010PropOp37
 70
     1
102
RTVSPost2010Prop38
140
0.0
102
RTVSPost2010PropOp38
 70
     1
102
RTVSPost2010Prop39
140
1.0
102
RTVSPost2010PropOp39
 70
     1
102
RTVSPost2010Prop40
 90
        0
102
RTVSPost2010PropOp40
 70
     1
102
RTVSPost2010Prop41ColorIndex
 90
       18
102
RTVSPost2010Prop41ColorRGB
 90
        0
102
RTVSPost2010PropOp41
 70
     1
102
RTVSPost2010Prop42
 90
       50
102
RTVSPost2010PropOp42
 70
     1
102
RTVSPost2010Prop43
 90
        3
102
RTVSPost2010PropOp43
 70
     1
102
RTVSPost2010Prop44ColorIndex
 90
        5
102
RTVSPost2010Prop44ColorRGB
 90
      255
102
RTVSPost2010PropOp44
 70
     1
102
RTVSPost2010Prop45
280
     0
102
RTVSPost2010PropOp45
 70
     1
102
RTVSPost2010Prop46
 90
       50
102
RTVSPost2010PropOp46
 70
     1
102
RTVSPost2010Prop47
 90
       50
102
RTVSPost2010PropOp47
 70
     1
102
RTVSPost2010Prop48
 90
       50
102
RTVSPost2010PropOp48
 70
     1
102
RTVSPost2010Prop49
280
     0
102
RTVSPost2010PropOp49
 70
     1
102
RTVSPost2010Prop50
 90
       50
102
RTVSPost2010PropOp50
 70
     1
102
RTVSPost2010Prop51ColorIndex
 90
      256
102
RTVSPost2010Prop51ColorRGB
 90
-16777216
102
RTVSPost2010PropOp51
 70
     0
102
RTVSPost2010Prop52
140
1.0
102
RTVSPost2010PropOp52
 70
     0
102
RTVSPost2010Prop53
 90
        2
102
RTVSPost2010PropOp53
 70
     1
102
RTVSPost2010Prop54
  1
strokes_ogs.tif
102
RTVSPost2010PropOp54
 70
     1
102
RTVSPost2010Prop55
280
     0
102
RTVSPost2010PropOp55
 70
     1
102
RTVSPost2010Prop56
140
1.0
102
RTVSPost2010PropOp56
 70
     1
102
RTVSPost2010Prop57
140
1.0
102
RTVSPost2010PropOp57
 70
     1
102
RTVSPropertyOp0
 70
     1
102
RTVSPropertyOp1
 70
     1
102
RTVSPropertyOp2
 70
     1
102
RTVSPropertyOp3
 70
     1
102
RTVSPropertyOp4
 70
     1
102
RTVSPropertyOp5
 70
     1
102
RTVSPropertyOp6
 70
     1
102
RTVSPropertyOp7
 70
     1
102
RTVSPropertyOp8
 70
     1
102
RTVSPropertyOp9
 70
     1
102
RTVSPropertyOp10
 70
     1
102
RTVSPropertyOp11
 70
     1
102
RTVSPropertyOp12
 70
     1
102
RTVSPropertyOp13
 70
     1
102
RTVSPropertyOp14
 70
     1
102
RTVSPropertyOp15
 70
     1
102
RTVSPropertyOp16
 70
     1
102
RTVSPropertyOp17
 70
     1
102
RTVSPropertyOp18
 70
     1
102
RTVSPropertyOp19
 70
     1
102
RTVSPropertyOp20
 70
     1
102
RTVSPropertyOp21
 70
     1
102
RTVSPropertyOp22
 70
     1
102
RTVSPropertyOp23
 70
     1
102
RTVSPropertyOp24
 70
     1
102
RTVSPropertyOp25
 70
     1
102
RTVSPropertyOp26
 70
     1
102
RTVSPropertyOp27
 70
     1
102
RTVSPropertyOp28
 70
     1
102
RTVSPropertyOp29
 70
     1
102
RTVSPropertyOp30
 70
     1
102
RTVSPropertyOp31
 70
     1
102
RTVSPropertyOp32
 70
     1
102
RTVSPropertyOp33
 70
     1
102
RTVSPropertyOp34
 70
     1
102
RTVSPropertyOp35
 70
     1
102
RTVSPropertyOp36
 70
     1
102
RTVSPropertyOp37
 70
     1
102
RTVSPropertyOp38
 70
     1
102
RTVSPropertyOp39
 70
     1
102
RTVSPropertyOp40
 70
     1
102
RTVSPropertyOp41
 70
     1
102
RTVSPropertyOp42
 70
     1
102
RTVSPropertyOp43
 70
     1
102
RTVSPropertyOp44
 70
     1
102
RTVSPropertyOp45
 70
     1
102
RTVSPropertyOp46
 70
     1
102
RTVSPropertyOp47
 70
     1
102
RTVSPropertyOp48
 70
     1
102
RTVSPropertyOp49
 70
     1
102
RTVSPropertyOp50
 70
     1
102
RTVSPropertyOp51
 70
     0
102
RTVSPropertyOp52
 70
     0
102
RTVSPropertyOp53
 70
     1
102
RTVSPropertyOp54
 70
     1
102
RTVSPropertyOp55
 70
     1
102
RTVSPropertyOp56
 70
     1
102
RTVSPropertyOp57
 70
     1
102
RTVSPropertyOp58
 70
     1
102
RTVSPropertyOp59
 70
     1
102
RTVSPropertyOp60
 70
     1
102
RTVSPropertyOp61
 70
     1
102
RTVSPropertyOp62
 70
     1
  0
XRECORD
  5
E8A
102
{ACAD_REACTORS
330
E89
102
}
330
E89
100
AcDbXrecord
280
     1
102
RTVSPost2010Prop28
280
     0
102
RTVSPost2010PropOp28
 70
     1
102
RTVSPost2010Prop29
280
     1
102
RTVSPost2010PropOp29
 70
     1
102
RTVSPost2010Prop30
280
     1
102
RTVSPost2010PropOp30
 70
     1
102
RTVSPost2010Prop31
280
     0
102
RTVSPost2010PropOp31
 70
     1
102
RTVSPost2010Prop32
280
     0
102
RTVSPost2010PropOp32
 70
     1
102
RTVSPost2010Prop33
280
     0
102
RTVSPost2010PropOp33
 70
     1
102
RTVSPost2010Prop34
280
     0
102
RTVSPost2010PropOp34
 70
     1
102
RTVSPost2010Prop35
280
     0
102
RTVSPost2010PropOp35
 70
     1
102
RTVSPost2010Prop36
280
     0
102
RTVSPost2010PropOp36
 70
     1
102
RTVSPost2010Prop37
 90
       50
102
RTVSPost2010PropOp37
 70
     1
102
RTVSPost2010Prop38
140
0.0
102
RTVSPost2010PropOp38
 70
     1
102
RTVSPost2010Prop39
140
1.0
102
RTVSPost2010PropOp39
 70
     1
102
RTVSPost2010Prop40
 90
        0
102
RTVSPost2010PropOp40
 70
     1
102
RTVSPost2010Prop41ColorIndex
 90
       18
102
RTVSPost2010Prop41ColorRGB
 90
        0
102
RTVSPost2010PropOp41
 70
     1
102
RTVSPost2010Prop42
 90
       50
102
RTVSPost2010PropOp42
 70
     1
102
RTVSPost2010Prop43
 90
        3
102
RTVSPost2010PropOp43
 70
     1
102
RTVSPost2010Prop44ColorIndex
 90
        5
102
RTVSPost2010Prop44ColorRGB
 90
      255
102
RTVSPost2010PropOp44
 70
     1
102
RTVSPost2010Prop45
280
     0
102
RTVSPost2010PropOp45
 70
     1
102
RTVSPost2010Prop46
 90
       50
102
RTVSPost2010PropOp46
 70
     1
102
RTVSPost2010Prop47
 90
       50
102
RTVSPost2010PropOp47
 70
     1
102
RTVSPost2010Prop48
 90
       50
102
RTVSPost2010PropOp48
 70
     1
102
RTVSPost2010Prop49
280
     0
102
RTVSPost2010PropOp49
 70
     1
102
RTVSPost2010Prop50
 90
       50
102
RTVSPost2010PropOp50
 70
     1
102
RTVSPost2010Prop51ColorIndex
 90
      256
102
RTVSPost2010Prop51ColorRGB
 90
-16777216
102
RTVSPost2010PropOp51
 70
     0
102
RTVSPost2010Prop52
140
1.0
102
RTVSPost2010PropOp52
 70
     0
102
RTVSPost2010Prop53
 90
        2
102
RTVSPost2010PropOp53
 70
     1
102
RTVSPost2010Prop54
  1
strokes_ogs.tif
102
RTVSPost2010PropOp54
 70
     1
102
RTVSPost2010Prop55
280
     0
102
RTVSPost2010PropOp55
 70
     1
102
RTVSPost2010Prop56
140
1.0
102
RTVSPost2010PropOp56
 70
     1
102
RTVSPost2010Prop57
140
1.0
102
RTVSPost2010PropOp57
 70
     1
102
RTVSPropertyOp0
 70
     1
102
RTVSPropertyOp1
 70
     1
102
RTVSPropertyOp2
 70
     1
102
RTVSPropertyOp3
 70
     1
102
RTVSPropertyOp4
 70
     1
102
RTVSPropertyOp5
 70
     1
102
RTVSPropertyOp6
 70
     1
102
RTVSPropertyOp7
 70
     1
102
RTVSPropertyOp8
 70
     1
102
RTVSPropertyOp9
 70
     1
102
RTVSPropertyOp10
 70
     1
102
RTVSPropertyOp11
 70
     1
102
RTVSPropertyOp12
 70
     1
102
RTVSPropertyOp13
 70
     1
102
RTVSPropertyOp14
 70
     1
102
RTVSPropertyOp15
 70
     1
102
RTVSPropertyOp16
 70
     1
102
RTVSPropertyOp17
 70
     1
102
RTVSPropertyOp18
 70
     1
102
RTVSPropertyOp19
 70
     1
102
RTVSPropertyOp20
 70
     1
102
RTVSPropertyOp21
 70
     1
102
RTVSPropertyOp22
 70
     1
102
RTVSPropertyOp23
 70
     1
102
RTVSPropertyOp24
 70
     1
102
RTVSPropertyOp25
 70
     1
102
RTVSPropertyOp26
 70
     1
102
RTVSPropertyOp27
 70
     1
102
RTVSPropertyOp28
 70
     1
102
RTVSPropertyOp29
 70
     1
102
RTVSPropertyOp30
 70
     1
102
RTVSPropertyOp31
 70
     1
102
RTVSPropertyOp32
 70
     1
102
RTVSPropertyOp33
 70
     1
102
RTVSPropertyOp34
 70
     1
102
RTVSPropertyOp35
 70
     1
102
RTVSPropertyOp36
 70
     1
102
RTVSPropertyOp37
 70
     1
102
RTVSPropertyOp38
 70
     1
102
RTVSPropertyOp39
 70
     1
102
RTVSPropertyOp40
 70
     1
102
RTVSPropertyOp41
 70
     1
102
RTVSPropertyOp42
 70
     1
102
RTVSPropertyOp43
 70
     1
102
RTVSPropertyOp44
 70
     1
102
RTVSPropertyOp45
 70
     1
102
RTVSPropertyOp46
 70
     1
102
RTVSPropertyOp47
 70
     1
102
RTVSPropertyOp48
 70
     1
102
RTVSPropertyOp49
 70
     1
102
RTVSPropertyOp50
 70
     1
102
RTVSPropertyOp51
 70
     0
102
RTVSPropertyOp52
 70
     0
102
RTVSPropertyOp53
 70
     1
102
RTVSPropertyOp54
 70
     1
102
RTVSPropertyOp55
 70
     1
102
RTVSPropertyOp56
 70
     1
102
RTVSPropertyOp57
 70
     1
102
RTVSPropertyOp58
 70
     1
102
RTVSPropertyOp59
 70
     1
102
RTVSPropertyOp60
 70
     1
102
RTVSPropertyOp61
 70
     1
102
RTVSPropertyOp62
 70
     1
  0
XRECORD
  5
E8C
102
{ACAD_REACTORS
330
E8B
102
}
330
E8B
100
AcDbXrecord
280
     1
102
RTVSPost2010Prop28
280
     0
102
RTVSPost2010PropOp28
 70
     1
102
RTVSPost2010Prop29
280
     1
102
RTVSPost2010PropOp29
 70
     1
102
RTVSPost2010Prop30
280
     1
102
RTVSPost2010PropOp30
 70
     1
102
RTVSPost2010Prop31
280
     0
102
RTVSPost2010PropOp31
 70
     1
102
RTVSPost2010Prop32
280
     0
102
RTVSPost2010PropOp32
 70
     1
102
RTVSPost2010Prop33
280
     0
102
RTVSPost2010PropOp33
 70
     1
102
RTVSPost2010Prop34
280
     0
102
RTVSPost2010PropOp34
 70
     1
102
RTVSPost2010Prop35
280
     0
102
RTVSPost2010PropOp35
 70
     1
102
RTVSPost2010Prop36
280
     0
102
RTVSPost2010PropOp36
 70
     1
102
RTVSPost2010Prop37
 90
       50
102
RTVSPost2010PropOp37
 70
     1
102
RTVSPost2010Prop38
140
0.0
102
RTVSPost2010PropOp38
 70
     1
102
RTVSPost2010Prop39
140
1.0
102
RTVSPost2010PropOp39
 70
     1
102
RTVSPost2010Prop40
 90
        0
102
RTVSPost2010PropOp40
 70
     1
102
RTVSPost2010Prop41ColorIndex
 90
       18
102
RTVSPost2010Prop41ColorRGB
 90
        0
102
RTVSPost2010PropOp41
 70
     1
102
RTVSPost2010Prop42
 90
       50
102
RTVSPost2010PropOp42
 70
     1
102
RTVSPost2010Prop43
 90
        3
102
RTVSPost2010PropOp43
 70
     1
102
RTVSPost2010Prop44ColorIndex
 90
        5
102
RTVSPost2010Prop44ColorRGB
 90
      255
102
RTVSPost2010PropOp44
 70
     1
102
RTVSPost2010Prop45
280
     0
102
RTVSPost2010PropOp45
 70
     1
102
RTVSPost2010Prop46
 90
       50
102
RTVSPost2010PropOp46
 70
     1
102
RTVSPost2010Prop47
 90
       50
102
RTVSPost2010PropOp47
 70
     1
102
RTVSPost2010Prop48
 90
       50
102
RTVSPost2010PropOp48
 70
     1
102
RTVSPost2010Prop49
280
     0
102
RTVSPost2010PropOp49
 70
     1
102
RTVSPost2010Prop50
 90
       50
102
RTVSPost2010PropOp50
 70
     1
102
RTVSPost2010Prop51ColorIndex
 90
      256
102
RTVSPost2010Prop51ColorRGB
 90
-16777216
102
RTVSPost2010PropOp51
 70
     0
102
RTVSPost2010Prop52
140
1.0
102
RTVSPost2010PropOp52
 70
     0
102
RTVSPost2010Prop53
 90
        2
102
RTVSPost2010PropOp53
 70
     1
102
RTVSPost2010Prop54
  1
strokes_ogs.tif
102
RTVSPost2010PropOp54
 70
     1
102
RTVSPost2010Prop55
280
     0
102
RTVSPost2010PropOp55
 70
     1
102
RTVSPost2010Prop56
140
1.0
102
RTVSPost2010PropOp56
 70
     1
102
RTVSPost2010Prop57
140
1.0
102
RTVSPost2010PropOp57
 70
     1
102
RTVSPropertyOp0
 70
     1
102
RTVSPropertyOp1
 70
     1
102
RTVSPropertyOp2
 70
     1
102
RTVSPropertyOp3
 70
     1
102
RTVSPropertyOp4
 70
     1
102
RTVSPropertyOp5
 70
     1
102
RTVSPropertyOp6
 70
     1
102
RTVSPropertyOp7
 70
     1
102
RTVSPropertyOp8
 70
     1
102
RTVSPropertyOp9
 70
     1
102
RTVSPropertyOp10
 70
     1
102
RTVSPropertyOp11
 70
     1
102
RTVSPropertyOp12
 70
     1
102
RTVSPropertyOp13
 70
     1
102
RTVSPropertyOp14
 70
     1
102
RTVSPropertyOp15
 70
     1
102
RTVSPropertyOp16
 70
     1
102
RTVSPropertyOp17
 70
     1
102
RTVSPropertyOp18
 70
     1
102
RTVSPropertyOp19
 70
     1
102
RTVSPropertyOp20
 70
     1
102
RTVSPropertyOp21
 70
     1
102
RTVSPropertyOp22
 70
     1
102
RTVSPropertyOp23
 70
     1
102
RTVSPropertyOp24
 70
     1
102
RTVSPropertyOp25
 70
     1
102
RTVSPropertyOp26
 70
     1
102
RTVSPropertyOp27
 70
     1
102
RTVSPropertyOp28
 70
     1
102
RTVSPropertyOp29
 70
     1
102
RTVSPropertyOp30
 70
     1
102
RTVSPropertyOp31
 70
     1
102
RTVSPropertyOp32
 70
     1
102
RTVSPropertyOp33
 70
     1
102
RTVSPropertyOp34
 70
     1
102
RTVSPropertyOp35
 70
     1
102
RTVSPropertyOp36
 70
     1
102
RTVSPropertyOp37
 70
     1
102
RTVSPropertyOp38
 70
     1
102
RTVSPropertyOp39
 70
     1
102
RTVSPropertyOp40
 70
     1
102
RTVSPropertyOp41
 70
     1
102
RTVSPropertyOp42
 70
     1
102
RTVSPropertyOp43
 70
     1
102
RTVSPropertyOp44
 70
     1
102
RTVSPropertyOp45
 70
     1
102
RTVSPropertyOp46
 70
     1
102
RTVSPropertyOp47
 70
     1
102
RTVSPropertyOp48
 70
     1
102
RTVSPropertyOp49
 70
     1
102
RTVSPropertyOp50
 70
     1
102
RTVSPropertyOp51
 70
     0
102
RTVSPropertyOp52
 70
     0
102
RTVSPropertyOp53
 70
     1
102
RTVSPropertyOp54
 70
     1
102
RTVSPropertyOp55
 70
     1
102
RTVSPropertyOp56
 70
     1
102
RTVSPropertyOp57
 70
     1
102
RTVSPropertyOp58
 70
     1
102
RTVSPropertyOp59
 70
     1
102
RTVSPropertyOp60
 70
     1
102
RTVSPropertyOp61
 70
     1
102
RTVSPropertyOp62
 70
     1
  0
XRECORD
  5
E8E
102
{ACAD_REACTORS
330
E8D
102
}
330
E8D
100
AcDbXrecord
280
     1
102
RTVSPost2010Prop28
280
     0
102
RTVSPost2010PropOp28
 70
     1
102
RTVSPost2010Prop29
280
     1
102
RTVSPost2010PropOp29
 70
     1
102
RTVSPost2010Prop30
280
     1
102
RTVSPost2010PropOp30
 70
     1
102
RTVSPost2010Prop31
280
     0
102
RTVSPost2010PropOp31
 70
     1
102
RTVSPost2010Prop32
280
     0
102
RTVSPost2010PropOp32
 70
     1
102
RTVSPost2010Prop33
280
     0
102
RTVSPost2010PropOp33
 70
     1
102
RTVSPost2010Prop34
280
     0
102
RTVSPost2010PropOp34
 70
     1
102
RTVSPost2010Prop35
280
     0
102
RTVSPost2010PropOp35
 70
     1
102
RTVSPost2010Prop36
280
     0
102
RTVSPost2010PropOp36
 70
     1
102
RTVSPost2010Prop37
 90
       50
102
RTVSPost2010PropOp37
 70
     1
102
RTVSPost2010Prop38
140
0.0
102
RTVSPost2010PropOp38
 70
     1
102
RTVSPost2010Prop39
140
1.0
102
RTVSPost2010PropOp39
 70
     1
102
RTVSPost2010Prop40
 90
        0
102
RTVSPost2010PropOp40
 70
     1
102
RTVSPost2010Prop41ColorIndex
 90
       18
102
RTVSPost2010Prop41ColorRGB
 90
        0
102
RTVSPost2010PropOp41
 70
     1
102
RTVSPost2010Prop42
 90
       50
102
RTVSPost2010PropOp42
 70
     1
102
RTVSPost2010Prop43
 90
        3
102
RTVSPost2010PropOp43
 70
     1
102
RTVSPost2010Prop44ColorIndex
 90
        5
102
RTVSPost2010Prop44ColorRGB
 90
      255
102
RTVSPost2010PropOp44
 70
     1
102
RTVSPost2010Prop45
280
     0
102
RTVSPost2010PropOp45
 70
     1
102
RTVSPost2010Prop46
 90
       50
102
RTVSPost2010PropOp46
 70
     1
102
RTVSPost2010Prop47
 90
       50
102
RTVSPost2010PropOp47
 70
     1
102
RTVSPost2010Prop48
 90
       50
102
RTVSPost2010PropOp48
 70
     1
102
RTVSPost2010Prop49
280
     0
102
RTVSPost2010PropOp49
 70
     1
102
RTVSPost2010Prop50
 90
       50
102
RTVSPost2010PropOp50
 70
     1
102
RTVSPost2010Prop51ColorIndex
 90
      256
102
RTVSPost2010Prop51ColorRGB
 90
-16777216
102
RTVSPost2010PropOp51
 70
     0
102
RTVSPost2010Prop52
140
1.0
102
RTVSPost2010PropOp52
 70
     0
102
RTVSPost2010Prop53
 90
        2
102
RTVSPost2010PropOp53
 70
     1
102
RTVSPost2010Prop54
  1
strokes_ogs.tif
102
RTVSPost2010PropOp54
 70
     1
102
RTVSPost2010Prop55
280
     0
102
RTVSPost2010PropOp55
 70
     1
102
RTVSPost2010Prop56
140
1.0
102
RTVSPost2010PropOp56
 70
     1
102
RTVSPost2010Prop57
140
1.0
102
RTVSPost2010PropOp57
 70
     1
102
RTVSPropertyOp0
 70
     1
102
RTVSPropertyOp1
 70
     1
102
RTVSPropertyOp2
 70
     1
102
RTVSPropertyOp3
 70
     1
102
RTVSPropertyOp4
 70
     1
102
RTVSPropertyOp5
 70
     1
102
RTVSPropertyOp6
 70
     1
102
RTVSPropertyOp7
 70
     1
102
RTVSPropertyOp8
 70
     1
102
RTVSPropertyOp9
 70
     1
102
RTVSPropertyOp10
 70
     1
102
RTVSPropertyOp11
 70
     1
102
RTVSPropertyOp12
 70
     1
102
RTVSPropertyOp13
 70
     1
102
RTVSPropertyOp14
 70
     1
102
RTVSPropertyOp15
 70
     1
102
RTVSPropertyOp16
 70
     1
102
RTVSPropertyOp17
 70
     1
102
RTVSPropertyOp18
 70
     1
102
RTVSPropertyOp19
 70
     1
102
RTVSPropertyOp20
 70
     1
102
RTVSPropertyOp21
 70
     1
102
RTVSPropertyOp22
 70
     1
102
RTVSPropertyOp23
 70
     1
102
RTVSPropertyOp24
 70
     1
102
RTVSPropertyOp25
 70
     1
102
RTVSPropertyOp26
 70
     1
102
RTVSPropertyOp27
 70
     1
102
RTVSPropertyOp28
 70
     1
102
RTVSPropertyOp29
 70
     1
102
RTVSPropertyOp30
 70
     1
102
RTVSPropertyOp31
 70
     1
102
RTVSPropertyOp32
 70
     1
102
RTVSPropertyOp33
 70
     1
102
RTVSPropertyOp34
 70
     1
102
RTVSPropertyOp35
 70
     1
102
RTVSPropertyOp36
 70
     1
102
RTVSPropertyOp37
 70
     1
102
RTVSPropertyOp38
 70
     1
102
RTVSPropertyOp39
 70
     1
102
RTVSPropertyOp40
 70
     1
102
RTVSPropertyOp41
 70
     1
102
RTVSPropertyOp42
 70
     1
102
RTVSPropertyOp43
 70
     1
102
RTVSPropertyOp44
 70
     1
102
RTVSPropertyOp45
 70
     1
102
RTVSPropertyOp46
 70
     1
102
RTVSPropertyOp47
 70
     1
102
RTVSPropertyOp48
 70
     1
102
RTVSPropertyOp49
 70
     1
102
RTVSPropertyOp50
 70
     1
102
RTVSPropertyOp51
 70
     0
102
RTVSPropertyOp52
 70
     0
102
RTVSPropertyOp53
 70
     1
102
RTVSPropertyOp54
 70
     1
102
RTVSPropertyOp55
 70
     1
102
RTVSPropertyOp56
 70
     1
102
RTVSPropertyOp57
 70
     1
102
RTVSPropertyOp58
 70
     1
102
RTVSPropertyOp59
 70
     1
102
RTVSPropertyOp60
 70
     1
102
RTVSPropertyOp61
 70
     1
102
RTVSPropertyOp62
 70
     1
  0
XRECORD
  5
E96
102
{ACAD_REACTORS
330
E95
102
}
330
E95
100
AcDbXrecord
280
     1
102
RTVSPost2010Prop28
280
     0
102
RTVSPost2010PropOp28
 70
     1
102
RTVSPost2010Prop29
280
     1
102
RTVSPost2010PropOp29
 70
     1
102
RTVSPost2010Prop30
280
     1
102
RTVSPost2010PropOp30
 70
     1
102
RTVSPost2010Prop31
280
     0
102
RTVSPost2010PropOp31
 70
     1
102
RTVSPost2010Prop32
280
     0
102
RTVSPost2010PropOp32
 70
     1
102
RTVSPost2010Prop33
280
     0
102
RTVSPost2010PropOp33
 70
     1
102
RTVSPost2010Prop34
280
     0
102
RTVSPost2010PropOp34
 70
     1
102
RTVSPost2010Prop35
280
     0
102
RTVSPost2010PropOp35
 70
     1
102
RTVSPost2010Prop36
280
     0
102
RTVSPost2010PropOp36
 70
     1
102
RTVSPost2010Prop37
 90
       50
102
RTVSPost2010PropOp37
 70
     1
102
RTVSPost2010Prop38
140
0.0
102
RTVSPost2010PropOp38
 70
     1
102
RTVSPost2010Prop39
140
1.0
102
RTVSPost2010PropOp39
 70
     1
102
RTVSPost2010Prop40
 90
        0
102
RTVSPost2010PropOp40
 70
     1
102
RTVSPost2010Prop41ColorIndex
 90
       18
102
RTVSPost2010Prop41ColorRGB
 90
        0
102
RTVSPost2010PropOp41
 70
     1
102
RTVSPost2010Prop42
 90
       50
102
RTVSPost2010PropOp42
 70
     1
102
RTVSPost2010Prop43
 90
        3
102
RTVSPost2010PropOp43
 70
     1
102
RTVSPost2010Prop44ColorIndex
 90
        5
102
RTVSPost2010Prop44ColorRGB
 90
      255
102
RTVSPost2010PropOp44
 70
     1
102
RTVSPost2010Prop45
280
     0
102
RTVSPost2010PropOp45
 70
     1
102
RTVSPost2010Prop46
 90
       50
102
RTVSPost2010PropOp46
 70
     1
102
RTVSPost2010Prop47
 90
       50
102
RTVSPost2010PropOp47
 70
     1
102
RTVSPost2010Prop48
 90
       50
102
RTVSPost2010PropOp48
 70
     1
102
RTVSPost2010Prop49
280
     0
102
RTVSPost2010PropOp49
 70
     1
102
RTVSPost2010Prop50
 90
       50
102
RTVSPost2010PropOp50
 70
     1
102
RTVSPost2010Prop51ColorIndex
 90
      256
102
RTVSPost2010Prop51ColorRGB
 90
-16777216
102
RTVSPost2010PropOp51
 70
     0
102
RTVSPost2010Prop52
140
1.0
102
RTVSPost2010PropOp52
 70
     0
102
RTVSPost2010Prop53
 90
        2
102
RTVSPost2010PropOp53
 70
     1
102
RTVSPost2010Prop54
  1
strokes_ogs.tif
102
RTVSPost2010PropOp54
 70
     1
102
RTVSPost2010Prop55
280
     0
102
RTVSPost2010PropOp55
 70
     1
102
RTVSPost2010Prop56
140
1.0
102
RTVSPost2010PropOp56
 70
     1
102
RTVSPost2010Prop57
140
1.0
102
RTVSPost2010PropOp57
 70
     1
102
RTVSPropertyOp0
 70
     1
102
RTVSPropertyOp1
 70
     1
102
RTVSPropertyOp2
 70
     1
102
RTVSPropertyOp3
 70
     1
102
RTVSPropertyOp4
 70
     1
102
RTVSPropertyOp5
 70
     1
102
RTVSPropertyOp6
 70
     1
102
RTVSPropertyOp7
 70
     1
102
RTVSPropertyOp8
 70
     1
102
RTVSPropertyOp9
 70
     1
102
RTVSPropertyOp10
 70
     1
102
RTVSPropertyOp11
 70
     1
102
RTVSPropertyOp12
 70
     1
102
RTVSPropertyOp13
 70
     1
102
RTVSPropertyOp14
 70
     1
102
RTVSPropertyOp15
 70
     1
102
RTVSPropertyOp16
 70
     1
102
RTVSPropertyOp17
 70
     1
102
RTVSPropertyOp18
 70
     1
102
RTVSPropertyOp19
 70
     1
102
RTVSPropertyOp20
 70
     1
102
RTVSPropertyOp21
 70
     1
102
RTVSPropertyOp22
 70
     1
102
RTVSPropertyOp23
 70
     1
102
RTVSPropertyOp24
 70
     1
102
RTVSPropertyOp25
 70
     1
102
RTVSPropertyOp26
 70
     1
102
RTVSPropertyOp27
 70
     1
102
RTVSPropertyOp28
 70
     1
102
RTVSPropertyOp29
 70
     1
102
RTVSPropertyOp30
 70
     1
102
RTVSPropertyOp31
 70
     1
102
RTVSPropertyOp32
 70
     1
102
RTVSPropertyOp33
 70
     1
102
RTVSPropertyOp34
 70
     1
102
RTVSPropertyOp35
 70
     1
102
RTVSPropertyOp36
 70
     1
102
RTVSPropertyOp37
 70
     1
102
RTVSPropertyOp38
 70
     1
102
RTVSPropertyOp39
 70
     1
102
RTVSPropertyOp40
 70
     1
102
RTVSPropertyOp41
 70
     1
102
RTVSPropertyOp42
 70
     1
102
RTVSPropertyOp43
 70
     1
102
RTVSPropertyOp44
 70
     1
102
RTVSPropertyOp45
 70
     1
102
RTVSPropertyOp46
 70
     1
102
RTVSPropertyOp47
 70
     1
102
RTVSPropertyOp48
 70
     1
102
RTVSPropertyOp49
 70
     1
102
RTVSPropertyOp50
 70
     1
102
RTVSPropertyOp51
 70
     0
102
RTVSPropertyOp52
 70
     0
102
RTVSPropertyOp53
 70
     1
102
RTVSPropertyOp54
 70
     1
102
RTVSPropertyOp55
 70
     1
102
RTVSPropertyOp56
 70
     1
102
RTVSPropertyOp57
 70
     1
102
RTVSPropertyOp58
 70
     1
102
RTVSPropertyOp59
 70
     1
102
RTVSPropertyOp60
 70
     1
102
RTVSPropertyOp61
 70
     1
102
RTVSPropertyOp62
 70
     1
  0
XRECORD
  5
EB2
102
{ACAD_REACTORS
330
EB1
102
}
330
EB1
100
AcDbXrecord
280
     1
102
RTVSPost2010Prop28
280
     0
102
RTVSPost2010PropOp28
 70
     0
102
RTVSPost2010Prop29
280
     1
102
RTVSPost2010PropOp29
 70
     0
102
RTVSPost2010Prop30
280
     1
102
RTVSPost2010PropOp30
 70
     0
102
RTVSPost2010Prop31
280
     0
102
RTVSPost2010PropOp31
 70
     0
102
RTVSPost2010Prop32
280
     0
102
RTVSPost2010PropOp32
 70
     0
102
RTVSPost2010Prop33
280
     0
102
RTVSPost2010PropOp33
 70
     0
102
RTVSPost2010Prop34
280
     0
102
RTVSPost2010PropOp34
 70
     0
102
RTVSPost2010Prop35
280
     0
102
RTVSPost2010PropOp35
 70
     0
102
RTVSPost2010Prop36
280
     0
102
RTVSPost2010PropOp36
 70
     0
102
RTVSPost2010Prop37
 90
       50
102
RTVSPost2010PropOp37
 70
     0
102
RTVSPost2010Prop38
140
0.0
102
RTVSPost2010PropOp38
 70
     0
102
RTVSPost2010Prop39
140
1.0
102
RTVSPost2010PropOp39
 70
     0
102
RTVSPost2010Prop40
 90
        0
102
RTVSPost2010PropOp40
 70
     0
102
RTVSPost2010Prop41ColorIndex
 90
       18
102
RTVSPost2010Prop41ColorRGB
 90
        0
102
RTVSPost2010PropOp41
 70
     0
102
RTVSPost2010Prop42
 90
       50
102
RTVSPost2010PropOp42
 70
     0
102
RTVSPost2010Prop43
 90
        3
102
RTVSPost2010PropOp43
 70
     0
102
RTVSPost2010Prop44ColorIndex
 90
        5
102
RTVSPost2010Prop44ColorRGB
 90
      255
102
RTVSPost2010PropOp44
 70
     0
102
RTVSPost2010Prop45
280
     0
102
RTVSPost2010PropOp45
 70
     0
102
RTVSPost2010Prop46
 90
       50
102
RTVSPost2010PropOp46
 70
     0
102
RTVSPost2010Prop47
 90
       50
102
RTVSPost2010PropOp47
 70
     0
102
RTVSPost2010Prop48
 90
       50
102
RTVSPost2010PropOp48
 70
     0
102
RTVSPost2010Prop49
280
     0
102
RTVSPost2010PropOp49
 70
     0
102
RTVSPost2010Prop50
 90
       50
102
RTVSPost2010PropOp50
 70
     0
102
RTVSPost2010Prop51ColorIndex
 90
      256
102
RTVSPost2010Prop51ColorRGB
 90
-16777216
102
RTVSPost2010PropOp51
 70
     0
102
RTVSPost2010Prop52
140
1.0
102
RTVSPost2010PropOp52
 70
     0
102
RTVSPost2010Prop53
 90
        2
102
RTVSPost2010PropOp53
 70
     0
102
RTVSPost2010Prop54
  1
strokes_ogs.tif
102
RTVSPost2010PropOp54
 70
     0
102
RTVSPost2010Prop55
280
     0
102
RTVSPost2010PropOp55
 70
     0
102
RTVSPost2010Prop56
140
1.0
102
RTVSPost2010PropOp56
 70
     0
102
RTVSPost2010Prop57
140
1.0
102
RTVSPost2010PropOp57
 70
     0
102
RTVSPropertyOp0
 70
     0
102
RTVSPropertyOp1
 70
     0
102
RTVSPropertyOp2
 70
     0
102
RTVSPropertyOp3
 70
     0
102
RTVSPropertyOp4
 70
     0
102
RTVSPropertyOp5
 70
     0
102
RTVSPropertyOp6
 70
     0
102
RTVSPropertyOp7
 70
     0
102
RTVSPropertyOp8
 70
     0
102
RTVSPropertyOp9
 70
     0
102
RTVSPropertyOp10
 70
     0
102
RTVSPropertyOp11
 70
     0
102
RTVSPropertyOp12
 70
     0
102
RTVSPropertyOp13
 70
     0
102
RTVSPropertyOp14
 70
     2
102
RTVSPropertyOp15
 70
     0
102
RTVSPropertyOp16
 70
     0
102
RTVSPropertyOp17
 70
     0
102
RTVSPropertyOp18
 70
     0
102
RTVSPropertyOp19
 70
     0
102
RTVSPropertyOp20
 70
     0
102
RTVSPropertyOp21
 70
     0
102
RTVSPropertyOp22
 70
     0
102
RTVSPropertyOp23
 70
     0
102
RTVSPropertyOp24
 70
     0
102
RTVSPropertyOp25
 70
     0
102
RTVSPropertyOp26
 70
     0
102
RTVSPropertyOp27
 70
     0
102
RTVSPropertyOp28
 70
     0
102
RTVSPropertyOp29
 70
     0
102
RTVSPropertyOp30
 70
     0
102
RTVSPropertyOp31
 70
     0
102
RTVSPropertyOp32
 70
     0
102
RTVSPropertyOp33
 70
     0
102
RTVSPropertyOp34
 70
     0
102
RTVSPropertyOp35
 70
     0
102
RTVSPropertyOp36
 70
     0
102
RTVSPropertyOp37
 70
     0
102
RTVSPropertyOp38
 70
     0
102
RTVSPropertyOp39
 70
     0
102
RTVSPropertyOp40
 70
     0
102
RTVSPropertyOp41
 70
     0
102
RTVSPropertyOp42
 70
     0
102
RTVSPropertyOp43
 70
     0
102
RTVSPropertyOp44
 70
     0
102
RTVSPropertyOp45
 70
     0
102
RTVSPropertyOp46
 70
     0
102
RTVSPropertyOp47
 70
     0
102
RTVSPropertyOp48
 70
     0
102
RTVSPropertyOp49
 70
     0
102
RTVSPropertyOp50
 70
     0
102
RTVSPropertyOp51
 70
     0
102
RTVSPropertyOp52
 70
     0
102
RTVSPropertyOp53
 70
     0
102
RTVSPropertyOp54
 70
     0
102
RTVSPropertyOp55
 70
     0
102
RTVSPropertyOp56
 70
     0
102
RTVSPropertyOp57
 70
     0
102
RTVSPropertyOp58
 70
     1
102
RTVSPropertyOp59
 70
     1
102
RTVSPropertyOp60
 70
     1
102
RTVSPropertyOp61
 70
     1
102
RTVSPropertyOp62
 70
     1
  0
XRECORD
  5
EA2
102
{ACAD_REACTORS
330
EA1
102
}
330
EA1
100
AcDbXrecord
280
     1
102
RTVSPost2010Prop28
280
     0
102
RTVSPost2010PropOp28
 70
     1
102
RTVSPost2010Prop29
280
     1
102
RTVSPost2010PropOp29
 70
     1
102
RTVSPost2010Prop30
280
     1
102
RTVSPost2010PropOp30
 70
     1
102
RTVSPost2010Prop31
280
     0
102
RTVSPost2010PropOp31
 70
     1
102
RTVSPost2010Prop32
280
     0
102
RTVSPost2010PropOp32
 70
     1
102
RTVSPost2010Prop33
280
     0
102
RTVSPost2010PropOp33
 70
     1
102
RTVSPost2010Prop34
280
     0
102
RTVSPost2010PropOp34
 70
     1
102
RTVSPost2010Prop35
280
     0
102
RTVSPost2010PropOp35
 70
     1
102
RTVSPost2010Prop36
280
     0
102
RTVSPost2010PropOp36
 70
     1
102
RTVSPost2010Prop37
 90
       50
102
RTVSPost2010PropOp37
 70
     1
102
RTVSPost2010Prop38
140
0.0
102
RTVSPost2010PropOp38
 70
     1
102
RTVSPost2010Prop39
140
1.0
102
RTVSPost2010PropOp39
 70
     1
102
RTVSPost2010Prop40
 90
        0
102
RTVSPost2010PropOp40
 70
     1
102
RTVSPost2010Prop41ColorIndex
 90
       18
102
RTVSPost2010Prop41ColorRGB
 90
        0
102
RTVSPost2010PropOp41
 70
     1
102
RTVSPost2010Prop42
 90
       50
102
RTVSPost2010PropOp42
 70
     1
102
RTVSPost2010Prop43
 90
        3
102
RTVSPost2010PropOp43
 70
     1
102
RTVSPost2010Prop44ColorIndex
 90
        5
102
RTVSPost2010Prop44ColorRGB
 90
      255
102
RTVSPost2010PropOp44
 70
     1
102
RTVSPost2010Prop45
280
     0
102
RTVSPost2010PropOp45
 70
     1
102
RTVSPost2010Prop46
 90
       50
102
RTVSPost2010PropOp46
 70
     1
102
RTVSPost2010Prop47
 90
       50
102
RTVSPost2010PropOp47
 70
     1
102
RTVSPost2010Prop48
 90
       50
102
RTVSPost2010PropOp48
 70
     1
102
RTVSPost2010Prop49
280
     0
102
RTVSPost2010PropOp49
 70
     1
102
RTVSPost2010Prop50
 90
       50
102
RTVSPost2010PropOp50
 70
     1
102
RTVSPost2010Prop51ColorIndex
 90
      256
102
RTVSPost2010Prop51ColorRGB
 90
-16777216
102
RTVSPost2010PropOp51
 70
     0
102
RTVSPost2010Prop52
140
1.0
102
RTVSPost2010PropOp52
 70
     0
102
RTVSPost2010Prop53
 90
        2
102
RTVSPost2010PropOp53
 70
     1
102
RTVSPost2010Prop54
  1
strokes_ogs.tif
102
RTVSPost2010PropOp54
 70
     1
102
RTVSPost2010Prop55
280
     0
102
RTVSPost2010PropOp55
 70
     1
102
RTVSPost2010Prop56
140
1.0
102
RTVSPost2010PropOp56
 70
     1
102
RTVSPost2010Prop57
140
1.0
102
RTVSPost2010PropOp57
 70
     1
102
RTVSPropertyOp0
 70
     1
102
RTVSPropertyOp1
 70
     1
102
RTVSPropertyOp2
 70
     1
102
RTVSPropertyOp3
 70
     1
102
RTVSPropertyOp4
 70
     1
102
RTVSPropertyOp5
 70
     1
102
RTVSPropertyOp6
 70
     1
102
RTVSPropertyOp7
 70
     1
102
RTVSPropertyOp8
 70
     1
102
RTVSPropertyOp9
 70
     1
102
RTVSPropertyOp10
 70
     1
102
RTVSPropertyOp11
 70
     1
102
RTVSPropertyOp12
 70
     1
102
RTVSPropertyOp13
 70
     1
102
RTVSPropertyOp14
 70
     1
102
RTVSPropertyOp15
 70
     1
102
RTVSPropertyOp16
 70
     1
102
RTVSPropertyOp17
 70
     1
102
RTVSPropertyOp18
 70
     1
102
RTVSPropertyOp19
 70
     1
102
RTVSPropertyOp20
 70
     1
102
RTVSPropertyOp21
 70
     1
102
RTVSPropertyOp22
 70
     1
102
RTVSPropertyOp23
 70
     1
102
RTVSPropertyOp24
 70
     1
102
RTVSPropertyOp25
 70
     1
102
RTVSPropertyOp26
 70
     1
102
RTVSPropertyOp27
 70
     1
102
RTVSPropertyOp28
 70
     1
102
RTVSPropertyOp29
 70
     1
102
RTVSPropertyOp30
 70
     1
102
RTVSPropertyOp31
 70
     1
102
RTVSPropertyOp32
 70
     1
102
RTVSPropertyOp33
 70
     1
102
RTVSPropertyOp34
 70
     1
102
RTVSPropertyOp35
 70
     1
102
RTVSPropertyOp36
 70
     1
102
RTVSPropertyOp37
 70
     1
102
RTVSPropertyOp38
 70
     1
102
RTVSPropertyOp39
 70
     1
102
RTVSPropertyOp40
 70
     1
102
RTVSPropertyOp41
 70
     1
102
RTVSPropertyOp42
 70
     1
102
RTVSPropertyOp43
 70
     1
102
RTVSPropertyOp44
 70
     1
102
RTVSPropertyOp45
 70
     1
102
RTVSPropertyOp46
 70
     1
102
RTVSPropertyOp47
 70
     1
102
RTVSPropertyOp48
 70
     1
102
RTVSPropertyOp49
 70
     1
102
RTVSPropertyOp50
 70
     1
102
RTVSPropertyOp51
 70
     0
102
RTVSPropertyOp52
 70
     0
102
RTVSPropertyOp53
 70
     1
102
RTVSPropertyOp54
 70
     1
102
RTVSPropertyOp55
 70
     1
102
RTVSPropertyOp56
 70
     1
102
RTVSPropertyOp57
 70
     1
102
RTVSPropertyOp58
 70
     1
102
RTVSPropertyOp59
 70
     1
102
RTVSPropertyOp60
 70
     1
102
RTVSPropertyOp61
 70
     1
102
RTVSPropertyOp62
 70
     1
  0
XRECORD
  5
EB4
102
{ACAD_REACTORS
330
EB3
102
}
330
EB3
100
AcDbXrecord
280
     1
102
RTVSPost2010Prop28
280
     0
102
RTVSPost2010PropOp28
 70
     0
102
RTVSPost2010Prop29
280
     1
102
RTVSPost2010PropOp29
 70
     0
102
RTVSPost2010Prop30
280
     1
102
RTVSPost2010PropOp30
 70
     0
102
RTVSPost2010Prop31
280
     0
102
RTVSPost2010PropOp31
 70
     0
102
RTVSPost2010Prop32
280
     0
102
RTVSPost2010PropOp32
 70
     0
102
RTVSPost2010Prop33
280
     0
102
RTVSPost2010PropOp33
 70
     0
102
RTVSPost2010Prop34
280
     0
102
RTVSPost2010PropOp34
 70
     0
102
RTVSPost2010Prop35
280
     0
102
RTVSPost2010PropOp35
 70
     0
102
RTVSPost2010Prop36
280
     0
102
RTVSPost2010PropOp36
 70
     0
102
RTVSPost2010Prop37
 90
       50
102
RTVSPost2010PropOp37
 70
     0
102
RTVSPost2010Prop38
140
0.0
102
RTVSPost2010PropOp38
 70
     0
102
RTVSPost2010Prop39
140
1.0
102
RTVSPost2010PropOp39
 70
     0
102
RTVSPost2010Prop40
 90
        0
102
RTVSPost2010PropOp40
 70
     0
102
RTVSPost2010Prop41ColorIndex
 90
       18
102
RTVSPost2010Prop41ColorRGB
 90
        0
102
RTVSPost2010PropOp41
 70
     0
102
RTVSPost2010Prop42
 90
       50
102
RTVSPost2010PropOp42
 70
     0
102
RTVSPost2010Prop43
 90
        3
102
RTVSPost2010PropOp43
 70
     0
102
RTVSPost2010Prop44ColorIndex
 90
        5
102
RTVSPost2010Prop44ColorRGB
 90
      255
102
RTVSPost2010PropOp44
 70
     0
102
RTVSPost2010Prop45
280
     0
102
RTVSPost2010PropOp45
 70
     0
102
RTVSPost2010Prop46
 90
       50
102
RTVSPost2010PropOp46
 70
     0
102
RTVSPost2010Prop47
 90
       50
102
RTVSPost2010PropOp47
 70
     0
102
RTVSPost2010Prop48
 90
       50
102
RTVSPost2010PropOp48
 70
     0
102
RTVSPost2010Prop49
280
     0
102
RTVSPost2010PropOp49
 70
     0
102
RTVSPost2010Prop50
 90
       50
102
RTVSPost2010PropOp50
 70
     0
102
RTVSPost2010Prop51ColorIndex
 90
      256
102
RTVSPost2010Prop51ColorRGB
 90
-16777216
102
RTVSPost2010PropOp51
 70
     0
102
RTVSPost2010Prop52
140
1.0
102
RTVSPost2010PropOp52
 70
     0
102
RTVSPost2010Prop53
 90
        2
102
RTVSPost2010PropOp53
 70
     0
102
RTVSPost2010Prop54
  1
strokes_ogs.tif
102
RTVSPost2010PropOp54
 70
     0
102
RTVSPost2010Prop55
280
     0
102
RTVSPost2010PropOp55
 70
     0
102
RTVSPost2010Prop56
140
1.0
102
RTVSPost2010PropOp56
 70
     0
102
RTVSPost2010Prop57
140
1.0
102
RTVSPost2010PropOp57
 70
     0
102
RTVSPropertyOp0
 70
     0
102
RTVSPropertyOp1
 70
     0
102
RTVSPropertyOp2
 70
     0
102
RTVSPropertyOp3
 70
     0
102
RTVSPropertyOp4
 70
     0
102
RTVSPropertyOp5
 70
     0
102
RTVSPropertyOp6
 70
     0
102
RTVSPropertyOp7
 70
     0
102
RTVSPropertyOp8
 70
     0
102
RTVSPropertyOp9
 70
     0
102
RTVSPropertyOp10
 70
     0
102
RTVSPropertyOp11
 70
     0
102
RTVSPropertyOp12
 70
     0
102
RTVSPropertyOp13
 70
     0
102
RTVSPropertyOp14
 70
     2
102
RTVSPropertyOp15
 70
     0
102
RTVSPropertyOp16
 70
     0
102
RTVSPropertyOp17
 70
     0
102
RTVSPropertyOp18
 70
     0
102
RTVSPropertyOp19
 70
     0
102
RTVSPropertyOp20
 70
     0
102
RTVSPropertyOp21
 70
     0
102
RTVSPropertyOp22
 70
     0
102
RTVSPropertyOp23
 70
     0
102
RTVSPropertyOp24
 70
     0
102
RTVSPropertyOp25
 70
     0
102
RTVSPropertyOp26
 70
     0
102
RTVSPropertyOp27
 70
     0
102
RTVSPropertyOp28
 70
     0
102
RTVSPropertyOp29
 70
     0
102
RTVSPropertyOp30
 70
     0
102
RTVSPropertyOp31
 70
     0
102
RTVSPropertyOp32
 70
     0
102
RTVSPropertyOp33
 70
     0
102
RTVSPropertyOp34
 70
     0
102
RTVSPropertyOp35
 70
     0
102
RTVSPropertyOp36
 70
     0
102
RTVSPropertyOp37
 70
     0
102
RTVSPropertyOp38
 70
     0
102
RTVSPropertyOp39
 70
     0
102
RTVSPropertyOp40
 70
     0
102
RTVSPropertyOp41
 70
     0
102
RTVSPropertyOp42
 70
     0
102
RTVSPropertyOp43
 70
     0
102
RTVSPropertyOp44
 70
     0
102
RTVSPropertyOp45
 70
     0
102
RTVSPropertyOp46
 70
     0
102
RTVSPropertyOp47
 70
     0
102
RTVSPropertyOp48
 70
     0
102
RTVSPropertyOp49
 70
     0
102
RTVSPropertyOp50
 70
     0
102
RTVSPropertyOp51
 70
     0
102
RTVSPropertyOp52
 70
     0
102
RTVSPropertyOp53
 70
     0
102
RTVSPropertyOp54
 70
     0
102
RTVSPropertyOp55
 70
     0
102
RTVSPropertyOp56
 70
     0
102
RTVSPropertyOp57
 70
     0
102
RTVSPropertyOp58
 70
     1
102
RTVSPropertyOp59
 70
     1
102
RTVSPropertyOp60
 70
     1
102
RTVSPropertyOp61
 70
     1
102
RTVSPropertyOp62
 70
     1
  0
XRECORD
  5
E9A
102
{ACAD_REACTORS
330
E99
102
}
330
E99
100
AcDbXrecord
280
     1
102
RTVSPost2010Prop28
280
     0
102
RTVSPost2010PropOp28
 70
     1
102
RTVSPost2010Prop29
280
     1
102
RTVSPost2010PropOp29
 70
     1
102
RTVSPost2010Prop30
280
     1
102
RTVSPost2010PropOp30
 70
     1
102
RTVSPost2010Prop31
280
     0
102
RTVSPost2010PropOp31
 70
     1
102
RTVSPost2010Prop32
280
     0
102
RTVSPost2010PropOp32
 70
     1
102
RTVSPost2010Prop33
280
     0
102
RTVSPost2010PropOp33
 70
     1
102
RTVSPost2010Prop34
280
     0
102
RTVSPost2010PropOp34
 70
     1
102
RTVSPost2010Prop35
280
     0
102
RTVSPost2010PropOp35
 70
     1
102
RTVSPost2010Prop36
280
     0
102
RTVSPost2010PropOp36
 70
     1
102
RTVSPost2010Prop37
 90
       50
102
RTVSPost2010PropOp37
 70
     1
102
RTVSPost2010Prop38
140
0.0
102
RTVSPost2010PropOp38
 70
     1
102
RTVSPost2010Prop39
140
1.0
102
RTVSPost2010PropOp39
 70
     1
102
RTVSPost2010Prop40
 90
        0
102
RTVSPost2010PropOp40
 70
     1
102
RTVSPost2010Prop41ColorIndex
 90
       18
102
RTVSPost2010Prop41ColorRGB
 90
        0
102
RTVSPost2010PropOp41
 70
     1
102
RTVSPost2010Prop42
 90
       50
102
RTVSPost2010PropOp42
 70
     1
102
RTVSPost2010Prop43
 90
        3
102
RTVSPost2010PropOp43
 70
     1
102
RTVSPost2010Prop44ColorIndex
 90
        5
102
RTVSPost2010Prop44ColorRGB
 90
      255
102
RTVSPost2010PropOp44
 70
     1
102
RTVSPost2010Prop45
280
     0
102
RTVSPost2010PropOp45
 70
     1
102
RTVSPost2010Prop46
 90
       50
102
RTVSPost2010PropOp46
 70
     1
102
RTVSPost2010Prop47
 90
       50
102
RTVSPost2010PropOp47
 70
     1
102
RTVSPost2010Prop48
 90
       50
102
RTVSPost2010PropOp48
 70
     1
102
RTVSPost2010Prop49
280
     0
102
RTVSPost2010PropOp49
 70
     1
102
RTVSPost2010Prop50
 90
       50
102
RTVSPost2010PropOp50
 70
     1
102
RTVSPost2010Prop51ColorIndex
 90
      256
102
RTVSPost2010Prop51ColorRGB
 90
-16777216
102
RTVSPost2010PropOp51
 70
     0
102
RTVSPost2010Prop52
140
1.0
102
RTVSPost2010PropOp52
 70
     0
102
RTVSPost2010Prop53
 90
        2
102
RTVSPost2010PropOp53
 70
     1
102
RTVSPost2010Prop54
  1
strokes_ogs.tif
102
RTVSPost2010PropOp54
 70
     1
102
RTVSPost2010Prop55
280
     0
102
RTVSPost2010PropOp55
 70
     1
102
RTVSPost2010Prop56
140
1.0
102
RTVSPost2010PropOp56
 70
     1
102
RTVSPost2010Prop57
140
1.0
102
RTVSPost2010PropOp57
 70
     1
102
RTVSPropertyOp0
 70
     1
102
RTVSPropertyOp1
 70
     1
102
RTVSPropertyOp2
 70
     1
102
RTVSPropertyOp3
 70
     1
102
RTVSPropertyOp4
 70
     1
102
RTVSPropertyOp5
 70
     1
102
RTVSPropertyOp6
 70
     1
102
RTVSPropertyOp7
 70
     1
102
RTVSPropertyOp8
 70
     1
102
RTVSPropertyOp9
 70
     1
102
RTVSPropertyOp10
 70
     1
102
RTVSPropertyOp11
 70
     1
102
RTVSPropertyOp12
 70
     1
102
RTVSPropertyOp13
 70
     1
102
RTVSPropertyOp14
 70
     1
102
RTVSPropertyOp15
 70
     1
102
RTVSPropertyOp16
 70
     1
102
RTVSPropertyOp17
 70
     1
102
RTVSPropertyOp18
 70
     1
102
RTVSPropertyOp19
 70
     1
102
RTVSPropertyOp20
 70
     1
102
RTVSPropertyOp21
 70
     1
102
RTVSPropertyOp22
 70
     1
102
RTVSPropertyOp23
 70
     1
102
RTVSPropertyOp24
 70
     1
102
RTVSPropertyOp25
 70
     1
102
RTVSPropertyOp26
 70
     1
102
RTVSPropertyOp27
 70
     1
102
RTVSPropertyOp28
 70
     1
102
RTVSPropertyOp29
 70
     1
102
RTVSPropertyOp30
 70
     1
102
RTVSPropertyOp31
 70
     1
102
RTVSPropertyOp32
 70
     1
102
RTVSPropertyOp33
 70
     1
102
RTVSPropertyOp34
 70
     1
102
RTVSPropertyOp35
 70
     1
102
RTVSPropertyOp36
 70
     1
102
RTVSPropertyOp37
 70
     1
102
RTVSPropertyOp38
 70
     1
102
RTVSPropertyOp39
 70
     1
102
RTVSPropertyOp40
 70
     1
102
RTVSPropertyOp41
 70
     1
102
RTVSPropertyOp42
 70
     1
102
RTVSPropertyOp43
 70
     1
102
RTVSPropertyOp44
 70
     1
102
RTVSPropertyOp45
 70
     1
102
RTVSPropertyOp46
 70
     1
102
RTVSPropertyOp47
 70
     1
102
RTVSPropertyOp48
 70
     1
102
RTVSPropertyOp49
 70
     1
102
RTVSPropertyOp50
 70
     1
102
RTVSPropertyOp51
 70
     0
102
RTVSPropertyOp52
 70
     0
102
RTVSPropertyOp53
 70
     1
102
RTVSPropertyOp54
 70
     1
102
RTVSPropertyOp55
 70
     1
102
RTVSPropertyOp56
 70
     1
102
RTVSPropertyOp57
 70
     1
102
RTVSPropertyOp58
 70
     1
102
RTVSPropertyOp59
 70
     1
102
RTVSPropertyOp60
 70
     1
102
RTVSPropertyOp61
 70
     1
102
RTVSPropertyOp62
 70
     1
  0
XRECORD
  5
EB0
102
{ACAD_REACTORS
330
EAF
102
}
330
EAF
100
AcDbXrecord
280
     1
102
RTVSPost2010Prop28
280
     0
102
RTVSPost2010PropOp28
 70
     1
102
RTVSPost2010Prop29
280
     1
102
RTVSPost2010PropOp29
 70
     1
102
RTVSPost2010Prop30
280
     1
102
RTVSPost2010PropOp30
 70
     1
102
RTVSPost2010Prop31
280
     0
102
RTVSPost2010PropOp31
 70
     1
102
RTVSPost2010Prop32
280
     0
102
RTVSPost2010PropOp32
 70
     1
102
RTVSPost2010Prop33
280
     0
102
RTVSPost2010PropOp33
 70
     1
102
RTVSPost2010Prop34
280
     0
102
RTVSPost2010PropOp34
 70
     1
102
RTVSPost2010Prop35
280
     0
102
RTVSPost2010PropOp35
 70
     1
102
RTVSPost2010Prop36
280
     0
102
RTVSPost2010PropOp36
 70
     1
102
RTVSPost2010Prop37
 90
       50
102
RTVSPost2010PropOp37
 70
     1
102
RTVSPost2010Prop38
140
0.0
102
RTVSPost2010PropOp38
 70
     1
102
RTVSPost2010Prop39
140
1.0
102
RTVSPost2010PropOp39
 70
     1
102
RTVSPost2010Prop40
 90
        0
102
RTVSPost2010PropOp40
 70
     1
102
RTVSPost2010Prop41ColorIndex
 90
       18
102
RTVSPost2010Prop41ColorRGB
 90
        0
102
RTVSPost2010PropOp41
 70
     1
102
RTVSPost2010Prop42
 90
       50
102
RTVSPost2010PropOp42
 70
     1
102
RTVSPost2010Prop43
 90
        3
102
RTVSPost2010PropOp43
 70
     1
102
RTVSPost2010Prop44ColorIndex
 90
        5
102
RTVSPost2010Prop44ColorRGB
 90
      255
102
RTVSPost2010PropOp44
 70
     1
102
RTVSPost2010Prop45
280
     0
102
RTVSPost2010PropOp45
 70
     1
102
RTVSPost2010Prop46
 90
       50
102
RTVSPost2010PropOp46
 70
     1
102
RTVSPost2010Prop47
 90
       50
102
RTVSPost2010PropOp47
 70
     1
102
RTVSPost2010Prop48
 90
       50
102
RTVSPost2010PropOp48
 70
     1
102
RTVSPost2010Prop49
280
     0
102
RTVSPost2010PropOp49
 70
     1
102
RTVSPost2010Prop50
 90
       50
102
RTVSPost2010PropOp50
 70
     1
102
RTVSPost2010Prop51ColorIndex
 90
      256
102
RTVSPost2010Prop51ColorRGB
 90
-16777216
102
RTVSPost2010PropOp51
 70
     0
102
RTVSPost2010Prop52
140
1.0
102
RTVSPost2010PropOp52
 70
     0
102
RTVSPost2010Prop53
 90
        2
102
RTVSPost2010PropOp53
 70
     1
102
RTVSPost2010Prop54
  1
strokes_ogs.tif
102
RTVSPost2010PropOp54
 70
     1
102
RTVSPost2010Prop55
280
     0
102
RTVSPost2010PropOp55
 70
     1
102
RTVSPost2010Prop56
140
1.0
102
RTVSPost2010PropOp56
 70
     1
102
RTVSPost2010Prop57
140
1.0
102
RTVSPost2010PropOp57
 70
     1
102
RTVSPropertyOp0
 70
     1
102
RTVSPropertyOp1
 70
     1
102
RTVSPropertyOp2
 70
     1
102
RTVSPropertyOp3
 70
     1
102
RTVSPropertyOp4
 70
     1
102
RTVSPropertyOp5
 70
     1
102
RTVSPropertyOp6
 70
     1
102
RTVSPropertyOp7
 70
     1
102
RTVSPropertyOp8
 70
     1
102
RTVSPropertyOp9
 70
     1
102
RTVSPropertyOp10
 70
     1
102
RTVSPropertyOp11
 70
     1
102
RTVSPropertyOp12
 70
     1
102
RTVSPropertyOp13
 70
     1
102
RTVSPropertyOp14
 70
     1
102
RTVSPropertyOp15
 70
     1
102
RTVSPropertyOp16
 70
     1
102
RTVSPropertyOp17
 70
     1
102
RTVSPropertyOp18
 70
     1
102
RTVSPropertyOp19
 70
     1
102
RTVSPropertyOp20
 70
     1
102
RTVSPropertyOp21
 70
     1
102
RTVSPropertyOp22
 70
     1
102
RTVSPropertyOp23
 70
     1
102
RTVSPropertyOp24
 70
     1
102
RTVSPropertyOp25
 70
     1
102
RTVSPropertyOp26
 70
     1
102
RTVSPropertyOp27
 70
     1
102
RTVSPropertyOp28
 70
     1
102
RTVSPropertyOp29
 70
     1
102
RTVSPropertyOp30
 70
     1
102
RTVSPropertyOp31
 70
     1
102
RTVSPropertyOp32
 70
     1
102
RTVSPropertyOp33
 70
     1
102
RTVSPropertyOp34
 70
     1
102
RTVSPropertyOp35
 70
     1
102
RTVSPropertyOp36
 70
     1
102
RTVSPropertyOp37
 70
     1
102
RTVSPropertyOp38
 70
     1
102
RTVSPropertyOp39
 70
     1
102
RTVSPropertyOp40
 70
     1
102
RTVSPropertyOp41
 70
     1
102
RTVSPropertyOp42
 70
     1
102
RTVSPropertyOp43
 70
     1
102
RTVSPropertyOp44
 70
     1
102
RTVSPropertyOp45
 70
     1
102
RTVSPropertyOp46
 70
     1
102
RTVSPropertyOp47
 70
     1
102
RTVSPropertyOp48
 70
     1
102
RTVSPropertyOp49
 70
     1
102
RTVSPropertyOp50
 70
     1
102
RTVSPropertyOp51
 70
     0
102
RTVSPropertyOp52
 70
     0
102
RTVSPropertyOp53
 70
     1
102
RTVSPropertyOp54
 70
     1
102
RTVSPropertyOp55
 70
     1
102
RTVSPropertyOp56
 70
     1
102
RTVSPropertyOp57
 70
     1
102
RTVSPropertyOp58
 70
     1
102
RTVSPropertyOp59
 70
     1
102
RTVSPropertyOp60
 70
     1
102
RTVSPropertyOp61
 70
     1
102
RTVSPropertyOp62
 70
     1
  0
XRECORD
  5
EAE
102
{ACAD_REACTORS
330
EAD
102
}
330
EAD
100
AcDbXrecord
280
     1
102
RTVSPost2010Prop28
280
     0
102
RTVSPost2010PropOp28
 70
     1
102
RTVSPost2010Prop29
280
     1
102
RTVSPost2010PropOp29
 70
     1
102
RTVSPost2010Prop30
280
     1
102
RTVSPost2010PropOp30
 70
     1
102
RTVSPost2010Prop31
280
     0
102
RTVSPost2010PropOp31
 70
     1
102
RTVSPost2010Prop32
280
     0
102
RTVSPost2010PropOp32
 70
     1
102
RTVSPost2010Prop33
280
     0
102
RTVSPost2010PropOp33
 70
     1
102
RTVSPost2010Prop34
280
     0
102
RTVSPost2010PropOp34
 70
     1
102
RTVSPost2010Prop35
280
     0
102
RTVSPost2010PropOp35
 70
     1
102
RTVSPost2010Prop36
280
     0
102
RTVSPost2010PropOp36
 70
     1
102
RTVSPost2010Prop37
 90
       50
102
RTVSPost2010PropOp37
 70
     1
102
RTVSPost2010Prop38
140
0.0
102
RTVSPost2010PropOp38
 70
     1
102
RTVSPost2010Prop39
140
1.0
102
RTVSPost2010PropOp39
 70
     1
102
RTVSPost2010Prop40
 90
        0
102
RTVSPost2010PropOp40
 70
     1
102
RTVSPost2010Prop41ColorIndex
 90
       18
102
RTVSPost2010Prop41ColorRGB
 90
        0
102
RTVSPost2010PropOp41
 70
     1
102
RTVSPost2010Prop42
 90
       50
102
RTVSPost2010PropOp42
 70
     1
102
RTVSPost2010Prop43
 90
        3
102
RTVSPost2010PropOp43
 70
     1
102
RTVSPost2010Prop44ColorIndex
 90
        5
102
RTVSPost2010Prop44ColorRGB
 90
      255
102
RTVSPost2010PropOp44
 70
     1
102
RTVSPost2010Prop45
280
     0
102
RTVSPost2010PropOp45
 70
     1
102
RTVSPost2010Prop46
 90
       50
102
RTVSPost2010PropOp46
 70
     1
102
RTVSPost2010Prop47
 90
       50
102
RTVSPost2010PropOp47
 70
     1
102
RTVSPost2010Prop48
 90
       50
102
RTVSPost2010PropOp48
 70
     1
102
RTVSPost2010Prop49
280
     0
102
RTVSPost2010PropOp49
 70
     1
102
RTVSPost2010Prop50
 90
       50
102
RTVSPost2010PropOp50
 70
     1
102
RTVSPost2010Prop51ColorIndex
 90
      256
102
RTVSPost2010Prop51ColorRGB
 90
-16777216
102
RTVSPost2010PropOp51
 70
     0
102
RTVSPost2010Prop52
140
1.0
102
RTVSPost2010PropOp52
 70
     0
102
RTVSPost2010Prop53
 90
        2
102
RTVSPost2010PropOp53
 70
     1
102
RTVSPost2010Prop54
  1
strokes_ogs.tif
102
RTVSPost2010PropOp54
 70
     1
102
RTVSPost2010Prop55
280
     0
102
RTVSPost2010PropOp55
 70
     1
102
RTVSPost2010Prop56
140
1.0
102
RTVSPost2010PropOp56
 70
     1
102
RTVSPost2010Prop57
140
1.0
102
RTVSPost2010PropOp57
 70
     1
102
RTVSPropertyOp0
 70
     1
102
RTVSPropertyOp1
 70
     1
102
RTVSPropertyOp2
 70
     1
102
RTVSPropertyOp3
 70
     1
102
RTVSPropertyOp4
 70
     1
102
RTVSPropertyOp5
 70
     1
102
RTVSPropertyOp6
 70
     1
102
RTVSPropertyOp7
 70
     1
102
RTVSPropertyOp8
 70
     1
102
RTVSPropertyOp9
 70
     1
102
RTVSPropertyOp10
 70
     1
102
RTVSPropertyOp11
 70
     1
102
RTVSPropertyOp12
 70
     1
102
RTVSPropertyOp13
 70
     1
102
RTVSPropertyOp14
 70
     1
102
RTVSPropertyOp15
 70
     1
102
RTVSPropertyOp16
 70
     1
102
RTVSPropertyOp17
 70
     1
102
RTVSPropertyOp18
 70
     1
102
RTVSPropertyOp19
 70
     1
102
RTVSPropertyOp20
 70
     1
102
RTVSPropertyOp21
 70
     1
102
RTVSPropertyOp22
 70
     1
102
RTVSPropertyOp23
 70
     1
102
RTVSPropertyOp24
 70
     1
102
RTVSPropertyOp25
 70
     1
102
RTVSPropertyOp26
 70
     1
102
RTVSPropertyOp27
 70
     1
102
RTVSPropertyOp28
 70
     1
102
RTVSPropertyOp29
 70
     1
102
RTVSPropertyOp30
 70
     1
102
RTVSPropertyOp31
 70
     1
102
RTVSPropertyOp32
 70
     1
102
RTVSPropertyOp33
 70
     1
102
RTVSPropertyOp34
 70
     1
102
RTVSPropertyOp35
 70
     1
102
RTVSPropertyOp36
 70
     1
102
RTVSPropertyOp37
 70
     1
102
RTVSPropertyOp38
 70
     1
102
RTVSPropertyOp39
 70
     1
102
RTVSPropertyOp40
 70
     1
102
RTVSPropertyOp41
 70
     1
102
RTVSPropertyOp42
 70
     1
102
RTVSPropertyOp43
 70
     1
102
RTVSPropertyOp44
 70
     1
102
RTVSPropertyOp45
 70
     1
102
RTVSPropertyOp46
 70
     1
102
RTVSPropertyOp47
 70
     1
102
RTVSPropertyOp48
 70
     1
102
RTVSPropertyOp49
 70
     1
102
RTVSPropertyOp50
 70
     1
102
RTVSPropertyOp51
 70
     0
102
RTVSPropertyOp52
 70
     0
102
RTVSPropertyOp53
 70
     1
102
RTVSPropertyOp54
 70
     1
102
RTVSPropertyOp55
 70
     1
102
RTVSPropertyOp56
 70
     1
102
RTVSPropertyOp57
 70
     1
102
RTVSPropertyOp58
 70
     1
102
RTVSPropertyOp59
 70
     1
102
RTVSPropertyOp60
 70
     1
102
RTVSPropertyOp61
 70
     1
102
RTVSPropertyOp62
 70
     1
  0
XRECORD
  5
EA8
102
{ACAD_REACTORS
330
EA7
102
}
330
EA7
100
AcDbXrecord
280
     1
102
RTVSPost2010Prop28
280
     0
102
RTVSPost2010PropOp28
 70
     1
102
RTVSPost2010Prop29
280
     1
102
RTVSPost2010PropOp29
 70
     1
102
RTVSPost2010Prop30
280
     1
102
RTVSPost2010PropOp30
 70
     1
102
RTVSPost2010Prop31
280
     0
102
RTVSPost2010PropOp31
 70
     1
102
RTVSPost2010Prop32
280
     0
102
RTVSPost2010PropOp32
 70
     1
102
RTVSPost2010Prop33
280
     0
102
RTVSPost2010PropOp33
 70
     1
102
RTVSPost2010Prop34
280
     0
102
RTVSPost2010PropOp34
 70
     1
102
RTVSPost2010Prop35
280
     0
102
RTVSPost2010PropOp35
 70
     1
102
RTVSPost2010Prop36
280
     0
102
RTVSPost2010PropOp36
 70
     1
102
RTVSPost2010Prop37
 90
       50
102
RTVSPost2010PropOp37
 70
     1
102
RTVSPost2010Prop38
140
0.0
102
RTVSPost2010PropOp38
 70
     1
102
RTVSPost2010Prop39
140
1.0
102
RTVSPost2010PropOp39
 70
     1
102
RTVSPost2010Prop40
 90
        0
102
RTVSPost2010PropOp40
 70
     1
102
RTVSPost2010Prop41ColorIndex
 90
       18
102
RTVSPost2010Prop41ColorRGB
 90
        0
102
RTVSPost2010PropOp41
 70
     1
102
RTVSPost2010Prop42
 90
       50
102
RTVSPost2010PropOp42
 70
     1
102
RTVSPost2010Prop43
 90
        3
102
RTVSPost2010PropOp43
 70
     1
102
RTVSPost2010Prop44ColorIndex
 90
        5
102
RTVSPost2010Prop44ColorRGB
 90
      255
102
RTVSPost2010PropOp44
 70
     1
102
RTVSPost2010Prop45
280
     0
102
RTVSPost2010PropOp45
 70
     1
102
RTVSPost2010Prop46
 90
       50
102
RTVSPost2010PropOp46
 70
     1
102
RTVSPost2010Prop47
 90
       50
102
RTVSPost2010PropOp47
 70
     1
102
RTVSPost2010Prop48
 90
       50
102
RTVSPost2010PropOp48
 70
     1
102
RTVSPost2010Prop49
280
     0
102
RTVSPost2010PropOp49
 70
     1
102
RTVSPost2010Prop50
 90
       50
102
RTVSPost2010PropOp50
 70
     1
102
RTVSPost2010Prop51ColorIndex
 90
      256
102
RTVSPost2010Prop51ColorRGB
 90
-16777216
102
RTVSPost2010PropOp51
 70
     0
102
RTVSPost2010Prop52
140
1.0
102
RTVSPost2010PropOp52
 70
     0
102
RTVSPost2010Prop53
 90
        2
102
RTVSPost2010PropOp53
 70
     1
102
RTVSPost2010Prop54
  1
strokes_ogs.tif
102
RTVSPost2010PropOp54
 70
     1
102
RTVSPost2010Prop55
280
     0
102
RTVSPost2010PropOp55
 70
     1
102
RTVSPost2010Prop56
140
1.0
102
RTVSPost2010PropOp56
 70
     1
102
RTVSPost2010Prop57
140
1.0
102
RTVSPost2010PropOp57
 70
     1
102
RTVSPropertyOp0
 70
     1
102
RTVSPropertyOp1
 70
     1
102
RTVSPropertyOp2
 70
     1
102
RTVSPropertyOp3
 70
     1
102
RTVSPropertyOp4
 70
     1
102
RTVSPropertyOp5
 70
     1
102
RTVSPropertyOp6
 70
     1
102
RTVSPropertyOp7
 70
     1
102
RTVSPropertyOp8
 70
     1
102
RTVSPropertyOp9
 70
     1
102
RTVSPropertyOp10
 70
     1
102
RTVSPropertyOp11
 70
     1
102
RTVSPropertyOp12
 70
     1
102
RTVSPropertyOp13
 70
     1
102
RTVSPropertyOp14
 70
     1
102
RTVSPropertyOp15
 70
     1
102
RTVSPropertyOp16
 70
     1
102
RTVSPropertyOp17
 70
     1
102
RTVSPropertyOp18
 70
     1
102
RTVSPropertyOp19
 70
     1
102
RTVSPropertyOp20
 70
     1
102
RTVSPropertyOp21
 70
     1
102
RTVSPropertyOp22
 70
     1
102
RTVSPropertyOp23
 70
     1
102
RTVSPropertyOp24
 70
     1
102
RTVSPropertyOp25
 70
     1
102
RTVSPropertyOp26
 70
     1
102
RTVSPropertyOp27
 70
     1
102
RTVSPropertyOp28
 70
     1
102
RTVSPropertyOp29
 70
     1
102
RTVSPropertyOp30
 70
     1
102
RTVSPropertyOp31
 70
     1
102
RTVSPropertyOp32
 70
     1
102
RTVSPropertyOp33
 70
     1
102
RTVSPropertyOp34
 70
     1
102
RTVSPropertyOp35
 70
     1
102
RTVSPropertyOp36
 70
     1
102
RTVSPropertyOp37
 70
     1
102
RTVSPropertyOp38
 70
     1
102
RTVSPropertyOp39
 70
     1
102
RTVSPropertyOp40
 70
     1
102
RTVSPropertyOp41
 70
     1
102
RTVSPropertyOp42
 70
     1
102
RTVSPropertyOp43
 70
     1
102
RTVSPropertyOp44
 70
     1
102
RTVSPropertyOp45
 70
     1
102
RTVSPropertyOp46
 70
     1
102
RTVSPropertyOp47
 70
     1
102
RTVSPropertyOp48
 70
     1
102
RTVSPropertyOp49
 70
     1
102
RTVSPropertyOp50
 70
     1
102
RTVSPropertyOp51
 70
     0
102
RTVSPropertyOp52
 70
     0
102
RTVSPropertyOp53
 70
     1
102
RTVSPropertyOp54
 70
     1
102
RTVSPropertyOp55
 70
     1
102
RTVSPropertyOp56
 70
     1
102
RTVSPropertyOp57
 70
     1
102
RTVSPropertyOp58
 70
     1
102
RTVSPropertyOp59
 70
     1
102
RTVSPropertyOp60
 70
     1
102
RTVSPropertyOp61
 70
     1
102
RTVSPropertyOp62
 70
     1
  0
XRECORD
  5
EAA
102
{ACAD_REACTORS
330
EA9
102
}
330
EA9
100
AcDbXrecord
280
     1
102
RTVSPost2010Prop28
280
     0
102
RTVSPost2010PropOp28
 70
     1
102
RTVSPost2010Prop29
280
     1
102
RTVSPost2010PropOp29
 70
     1
102
RTVSPost2010Prop30
280
     1
102
RTVSPost2010PropOp30
 70
     1
102
RTVSPost2010Prop31
280
     0
102
RTVSPost2010PropOp31
 70
     1
102
RTVSPost2010Prop32
280
     0
102
RTVSPost2010PropOp32
 70
     1
102
RTVSPost2010Prop33
280
     0
102
RTVSPost2010PropOp33
 70
     1
102
RTVSPost2010Prop34
280
     0
102
RTVSPost2010PropOp34
 70
     1
102
RTVSPost2010Prop35
280
     0
102
RTVSPost2010PropOp35
 70
     1
102
RTVSPost2010Prop36
280
     0
102
RTVSPost2010PropOp36
 70
     1
102
RTVSPost2010Prop37
 90
       50
102
RTVSPost2010PropOp37
 70
     1
102
RTVSPost2010Prop38
140
0.0
102
RTVSPost2010PropOp38
 70
     1
102
RTVSPost2010Prop39
140
1.0
102
RTVSPost2010PropOp39
 70
     1
102
RTVSPost2010Prop40
 90
        0
102
RTVSPost2010PropOp40
 70
     1
102
RTVSPost2010Prop41ColorIndex
 90
       18
102
RTVSPost2010Prop41ColorRGB
 90
        0
102
RTVSPost2010PropOp41
 70
     1
102
RTVSPost2010Prop42
 90
       50
102
RTVSPost2010PropOp42
 70
     1
102
RTVSPost2010Prop43
 90
        3
102
RTVSPost2010PropOp43
 70
     1
102
RTVSPost2010Prop44ColorIndex
 90
        5
102
RTVSPost2010Prop44ColorRGB
 90
      255
102
RTVSPost2010PropOp44
 70
     1
102
RTVSPost2010Prop45
280
     0
102
RTVSPost2010PropOp45
 70
     1
102
RTVSPost2010Prop46
 90
       50
102
RTVSPost2010PropOp46
 70
     1
102
RTVSPost2010Prop47
 90
       50
102
RTVSPost2010PropOp47
 70
     1
102
RTVSPost2010Prop48
 90
       50
102
RTVSPost2010PropOp48
 70
     1
102
RTVSPost2010Prop49
280
     0
102
RTVSPost2010PropOp49
 70
     1
102
RTVSPost2010Prop50
 90
       50
102
RTVSPost2010PropOp50
 70
     1
102
RTVSPost2010Prop51ColorIndex
 90
      256
102
RTVSPost2010Prop51ColorRGB
 90
-16777216
102
RTVSPost2010PropOp51
 70
     0
102
RTVSPost2010Prop52
140
1.0
102
RTVSPost2010PropOp52
 70
     0
102
RTVSPost2010Prop53
 90
        2
102
RTVSPost2010PropOp53
 70
     1
102
RTVSPost2010Prop54
  1
strokes_ogs.tif
102
RTVSPost2010PropOp54
 70
     1
102
RTVSPost2010Prop55
280
     0
102
RTVSPost2010PropOp55
 70
     1
102
RTVSPost2010Prop56
140
1.0
102
RTVSPost2010PropOp56
 70
     1
102
RTVSPost2010Prop57
140
1.0
102
RTVSPost2010PropOp57
 70
     1
102
RTVSPropertyOp0
 70
     1
102
RTVSPropertyOp1
 70
     1
102
RTVSPropertyOp2
 70
     1
102
RTVSPropertyOp3
 70
     1
102
RTVSPropertyOp4
 70
     1
102
RTVSPropertyOp5
 70
     1
102
RTVSPropertyOp6
 70
     1
102
RTVSPropertyOp7
 70
     1
102
RTVSPropertyOp8
 70
     1
102
RTVSPropertyOp9
 70
     1
102
RTVSPropertyOp10
 70
     1
102
RTVSPropertyOp11
 70
     1
102
RTVSPropertyOp12
 70
     1
102
RTVSPropertyOp13
 70
     1
102
RTVSPropertyOp14
 70
     1
102
RTVSPropertyOp15
 70
     1
102
RTVSPropertyOp16
 70
     1
102
RTVSPropertyOp17
 70
     1
102
RTVSPropertyOp18
 70
     1
102
RTVSPropertyOp19
 70
     1
102
RTVSPropertyOp20
 70
     1
102
RTVSPropertyOp21
 70
     1
102
RTVSPropertyOp22
 70
     1
102
RTVSPropertyOp23
 70
     1
102
RTVSPropertyOp24
 70
     1
102
RTVSPropertyOp25
 70
     1
102
RTVSPropertyOp26
 70
     1
102
RTVSPropertyOp27
 70
     1
102
RTVSPropertyOp28
 70
     1
102
RTVSPropertyOp29
 70
     1
102
RTVSPropertyOp30
 70
     1
102
RTVSPropertyOp31
 70
     1
102
RTVSPropertyOp32
 70
     1
102
RTVSPropertyOp33
 70
     1
102
RTVSPropertyOp34
 70
     1
102
RTVSPropertyOp35
 70
     1
102
RTVSPropertyOp36
 70
     1
102
RTVSPropertyOp37
 70
     1
102
RTVSPropertyOp38
 70
     1
102
RTVSPropertyOp39
 70
     1
102
RTVSPropertyOp40
 70
     1
102
RTVSPropertyOp41
 70
     1
102
RTVSPropertyOp42
 70
     1
102
RTVSPropertyOp43
 70
     1
102
RTVSPropertyOp44
 70
     1
102
RTVSPropertyOp45
 70
     1
102
RTVSPropertyOp46
 70
     1
102
RTVSPropertyOp47
 70
     1
102
RTVSPropertyOp48
 70
     1
102
RTVSPropertyOp49
 70
     1
102
RTVSPropertyOp50
 70
     1
102
RTVSPropertyOp51
 70
     0
102
RTVSPropertyOp52
 70
     0
102
RTVSPropertyOp53
 70
     1
102
RTVSPropertyOp54
 70
     1
102
RTVSPropertyOp55
 70
     1
102
RTVSPropertyOp56
 70
     1
102
RTVSPropertyOp57
 70
     1
102
RTVSPropertyOp58
 70
     1
102
RTVSPropertyOp59
 70
     1
102
RTVSPropertyOp60
 70
     1
102
RTVSPropertyOp61
 70
     1
102
RTVSPropertyOp62
 70
     1
  0
XRECORD
  5
EA0
102
{ACAD_REACTORS
330
E9F
102
}
330
E9F
100
AcDbXrecord
280
     1
102
RTVSPost2010Prop28
280
     0
102
RTVSPost2010PropOp28
 70
     1
102
RTVSPost2010Prop29
280
     1
102
RTVSPost2010PropOp29
 70
     1
102
RTVSPost2010Prop30
280
     1
102
RTVSPost2010PropOp30
 70
     1
102
RTVSPost2010Prop31
280
     0
102
RTVSPost2010PropOp31
 70
     1
102
RTVSPost2010Prop32
280
     0
102
RTVSPost2010PropOp32
 70
     1
102
RTVSPost2010Prop33
280
     0
102
RTVSPost2010PropOp33
 70
     1
102
RTVSPost2010Prop34
280
     0
102
RTVSPost2010PropOp34
 70
     1
102
RTVSPost2010Prop35
280
     0
102
RTVSPost2010PropOp35
 70
     1
102
RTVSPost2010Prop36
280
     0
102
RTVSPost2010PropOp36
 70
     1
102
RTVSPost2010Prop37
 90
       50
102
RTVSPost2010PropOp37
 70
     1
102
RTVSPost2010Prop38
140
0.0
102
RTVSPost2010PropOp38
 70
     1
102
RTVSPost2010Prop39
140
1.0
102
RTVSPost2010PropOp39
 70
     1
102
RTVSPost2010Prop40
 90
        0
102
RTVSPost2010PropOp40
 70
     1
102
RTVSPost2010Prop41ColorIndex
 90
       18
102
RTVSPost2010Prop41ColorRGB
 90
        0
102
RTVSPost2010PropOp41
 70
     1
102
RTVSPost2010Prop42
 90
       50
102
RTVSPost2010PropOp42
 70
     1
102
RTVSPost2010Prop43
 90
        3
102
RTVSPost2010PropOp43
 70
     1
102
RTVSPost2010Prop44ColorIndex
 90
        5
102
RTVSPost2010Prop44ColorRGB
 90
      255
102
RTVSPost2010PropOp44
 70
     1
102
RTVSPost2010Prop45
280
     0
102
RTVSPost2010PropOp45
 70
     1
102
RTVSPost2010Prop46
 90
       50
102
RTVSPost2010PropOp46
 70
     1
102
RTVSPost2010Prop47
 90
       50
102
RTVSPost2010PropOp47
 70
     1
102
RTVSPost2010Prop48
 90
       50
102
RTVSPost2010PropOp48
 70
     1
102
RTVSPost2010Prop49
280
     0
102
RTVSPost2010PropOp49
 70
     1
102
RTVSPost2010Prop50
 90
       50
102
RTVSPost2010PropOp50
 70
     1
102
RTVSPost2010Prop51ColorIndex
 90
      256
102
RTVSPost2010Prop51ColorRGB
 90
-16777216
102
RTVSPost2010PropOp51
 70
     0
102
RTVSPost2010Prop52
140
1.0
102
RTVSPost2010PropOp52
 70
     0
102
RTVSPost2010Prop53
 90
        2
102
RTVSPost2010PropOp53
 70
     1
102
RTVSPost2010Prop54
  1
strokes_ogs.tif
102
RTVSPost2010PropOp54
 70
     1
102
RTVSPost2010Prop55
280
     0
102
RTVSPost2010PropOp55
 70
     1
102
RTVSPost2010Prop56
140
1.0
102
RTVSPost2010PropOp56
 70
     1
102
RTVSPost2010Prop57
140
1.0
102
RTVSPost2010PropOp57
 70
     1
102
RTVSPropertyOp0
 70
     1
102
RTVSPropertyOp1
 70
     1
102
RTVSPropertyOp2
 70
     1
102
RTVSPropertyOp3
 70
     1
102
RTVSPropertyOp4
 70
     1
102
RTVSPropertyOp5
 70
     1
102
RTVSPropertyOp6
 70
     1
102
RTVSPropertyOp7
 70
     1
102
RTVSPropertyOp8
 70
     1
102
RTVSPropertyOp9
 70
     1
102
RTVSPropertyOp10
 70
     1
102
RTVSPropertyOp11
 70
     1
102
RTVSPropertyOp12
 70
     1
102
RTVSPropertyOp13
 70
     1
102
RTVSPropertyOp14
 70
     1
102
RTVSPropertyOp15
 70
     1
102
RTVSPropertyOp16
 70
     1
102
RTVSPropertyOp17
 70
     1
102
RTVSPropertyOp18
 70
     1
102
RTVSPropertyOp19
 70
     1
102
RTVSPropertyOp20
 70
     1
102
RTVSPropertyOp21
 70
     1
102
RTVSPropertyOp22
 70
     1
102
RTVSPropertyOp23
 70
     1
102
RTVSPropertyOp24
 70
     1
102
RTVSPropertyOp25
 70
     1
102
RTVSPropertyOp26
 70
     1
102
RTVSPropertyOp27
 70
     1
102
RTVSPropertyOp28
 70
     1
102
RTVSPropertyOp29
 70
     1
102
RTVSPropertyOp30
 70
     1
102
RTVSPropertyOp31
 70
     1
102
RTVSPropertyOp32
 70
     1
102
RTVSPropertyOp33
 70
     1
102
RTVSPropertyOp34
 70
     1
102
RTVSPropertyOp35
 70
     1
102
RTVSPropertyOp36
 70
     1
102
RTVSPropertyOp37
 70
     1
102
RTVSPropertyOp38
 70
     1
102
RTVSPropertyOp39
 70
     1
102
RTVSPropertyOp40
 70
     1
102
RTVSPropertyOp41
 70
     1
102
RTVSPropertyOp42
 70
     1
102
RTVSPropertyOp43
 70
     1
102
RTVSPropertyOp44
 70
     1
102
RTVSPropertyOp45
 70
     1
102
RTVSPropertyOp46
 70
     1
102
RTVSPropertyOp47
 70
     1
102
RTVSPropertyOp48
 70
     1
102
RTVSPropertyOp49
 70
     1
102
RTVSPropertyOp50
 70
     1
102
RTVSPropertyOp51
 70
     0
102
RTVSPropertyOp52
 70
     0
102
RTVSPropertyOp53
 70
     1
102
RTVSPropertyOp54
 70
     1
102
RTVSPropertyOp55
 70
     1
102
RTVSPropertyOp56
 70
     1
102
RTVSPropertyOp57
 70
     1
102
RTVSPropertyOp58
 70
     1
102
RTVSPropertyOp59
 70
     1
102
RTVSPropertyOp60
 70
     1
102
RTVSPropertyOp61
 70
     1
102
RTVSPropertyOp62
 70
     1
  0
XRECORD
  5
E94
102
{ACAD_REACTORS
330
E93
102
}
330
E93
100
AcDbXrecord
280
     1
102
RTVSPost2010Prop28
280
     0
102
RTVSPost2010PropOp28
 70
     1
102
RTVSPost2010Prop29
280
     1
102
RTVSPost2010PropOp29
 70
     1
102
RTVSPost2010Prop30
280
     1
102
RTVSPost2010PropOp30
 70
     1
102
RTVSPost2010Prop31
280
     0
102
RTVSPost2010PropOp31
 70
     1
102
RTVSPost2010Prop32
280
     0
102
RTVSPost2010PropOp32
 70
     1
102
RTVSPost2010Prop33
280
     0
102
RTVSPost2010PropOp33
 70
     1
102
RTVSPost2010Prop34
280
     0
102
RTVSPost2010PropOp34
 70
     1
102
RTVSPost2010Prop35
280
     0
102
RTVSPost2010PropOp35
 70
     1
102
RTVSPost2010Prop36
280
     0
102
RTVSPost2010PropOp36
 70
     1
102
RTVSPost2010Prop37
 90
       50
102
RTVSPost2010PropOp37
 70
     1
102
RTVSPost2010Prop38
140
0.0
102
RTVSPost2010PropOp38
 70
     1
102
RTVSPost2010Prop39
140
1.0
102
RTVSPost2010PropOp39
 70
     1
102
RTVSPost2010Prop40
 90
        0
102
RTVSPost2010PropOp40
 70
     1
102
RTVSPost2010Prop41ColorIndex
 90
       18
102
RTVSPost2010Prop41ColorRGB
 90
        0
102
RTVSPost2010PropOp41
 70
     1
102
RTVSPost2010Prop42
 90
       50
102
RTVSPost2010PropOp42
 70
     1
102
RTVSPost2010Prop43
 90
        3
102
RTVSPost2010PropOp43
 70
     1
102
RTVSPost2010Prop44ColorIndex
 90
        5
102
RTVSPost2010Prop44ColorRGB
 90
      255
102
RTVSPost2010PropOp44
 70
     1
102
RTVSPost2010Prop45
280
     0
102
RTVSPost2010PropOp45
 70
     1
102
RTVSPost2010Prop46
 90
       50
102
RTVSPost2010PropOp46
 70
     1
102
RTVSPost2010Prop47
 90
       50
102
RTVSPost2010PropOp47
 70
     1
102
RTVSPost2010Prop48
 90
       50
102
RTVSPost2010PropOp48
 70
     1
102
RTVSPost2010Prop49
280
     0
102
RTVSPost2010PropOp49
 70
     1
102
RTVSPost2010Prop50
 90
       50
102
RTVSPost2010PropOp50
 70
     1
102
RTVSPost2010Prop51ColorIndex
 90
      256
102
RTVSPost2010Prop51ColorRGB
 90
-16777216
102
RTVSPost2010PropOp51
 70
     0
102
RTVSPost2010Prop52
140
1.0
102
RTVSPost2010PropOp52
 70
     0
102
RTVSPost2010Prop53
 90
        2
102
RTVSPost2010PropOp53
 70
     1
102
RTVSPost2010Prop54
  1
strokes_ogs.tif
102
RTVSPost2010PropOp54
 70
     1
102
RTVSPost2010Prop55
280
     0
102
RTVSPost2010PropOp55
 70
     1
102
RTVSPost2010Prop56
140
1.0
102
RTVSPost2010PropOp56
 70
     1
102
RTVSPost2010Prop57
140
1.0
102
RTVSPost2010PropOp57
 70
     1
102
RTVSPropertyOp0
 70
     1
102
RTVSPropertyOp1
 70
     1
102
RTVSPropertyOp2
 70
     1
102
RTVSPropertyOp3
 70
     1
102
RTVSPropertyOp4
 70
     1
102
RTVSPropertyOp5
 70
     1
102
RTVSPropertyOp6
 70
     1
102
RTVSPropertyOp7
 70
     1
102
RTVSPropertyOp8
 70
     1
102
RTVSPropertyOp9
 70
     1
102
RTVSPropertyOp10
 70
     1
102
RTVSPropertyOp11
 70
     1
102
RTVSPropertyOp12
 70
     1
102
RTVSPropertyOp13
 70
     1
102
RTVSPropertyOp14
 70
     1
102
RTVSPropertyOp15
 70
     1
102
RTVSPropertyOp16
 70
     1
102
RTVSPropertyOp17
 70
     1
102
RTVSPropertyOp18
 70
     1
102
RTVSPropertyOp19
 70
     1
102
RTVSPropertyOp20
 70
     1
102
RTVSPropertyOp21
 70
     1
102
RTVSPropertyOp22
 70
     1
102
RTVSPropertyOp23
 70
     1
102
RTVSPropertyOp24
 70
     1
102
RTVSPropertyOp25
 70
     1
102
RTVSPropertyOp26
 70
     1
102
RTVSPropertyOp27
 70
     1
102
RTVSPropertyOp28
 70
     1
102
RTVSPropertyOp29
 70
     1
102
RTVSPropertyOp30
 70
     1
102
RTVSPropertyOp31
 70
     1
102
RTVSPropertyOp32
 70
     1
102
RTVSPropertyOp33
 70
     1
102
RTVSPropertyOp34
 70
     1
102
RTVSPropertyOp35
 70
     1
102
RTVSPropertyOp36
 70
     1
102
RTVSPropertyOp37
 70
     1
102
RTVSPropertyOp38
 70
     1
102
RTVSPropertyOp39
 70
     1
102
RTVSPropertyOp40
 70
     1
102
RTVSPropertyOp41
 70
     1
102
RTVSPropertyOp42
 70
     1
102
RTVSPropertyOp43
 70
     1
102
RTVSPropertyOp44
 70
     1
102
RTVSPropertyOp45
 70
     1
102
RTVSPropertyOp46
 70
     1
102
RTVSPropertyOp47
 70
     1
102
RTVSPropertyOp48
 70
     1
102
RTVSPropertyOp49
 70
     1
102
RTVSPropertyOp50
 70
     1
102
RTVSPropertyOp51
 70
     0
102
RTVSPropertyOp52
 70
     0
102
RTVSPropertyOp53
 70
     1
102
RTVSPropertyOp54
 70
     1
102
RTVSPropertyOp55
 70
     1
102
RTVSPropertyOp56
 70
     1
102
RTVSPropertyOp57
 70
     1
102
RTVSPropertyOp58
 70
     1
102
RTVSPropertyOp59
 70
     1
102
RTVSPropertyOp60
 70
     1
102
RTVSPropertyOp61
 70
     1
102
RTVSPropertyOp62
 70
     1
  0
XRECORD
  5
EAC
102
{ACAD_REACTORS
330
EAB
102
}
330
EAB
100
AcDbXrecord
280
     1
102
RTVSPost2010Prop28
280
     0
102
RTVSPost2010PropOp28
 70
     1
102
RTVSPost2010Prop29
280
     1
102
RTVSPost2010PropOp29
 70
     1
102
RTVSPost2010Prop30
280
     1
102
RTVSPost2010PropOp30
 70
     1
102
RTVSPost2010Prop31
280
     0
102
RTVSPost2010PropOp31
 70
     1
102
RTVSPost2010Prop32
280
     0
102
RTVSPost2010PropOp32
 70
     1
102
RTVSPost2010Prop33
280
     0
102
RTVSPost2010PropOp33
 70
     1
102
RTVSPost2010Prop34
280
     0
102
RTVSPost2010PropOp34
 70
     1
102
RTVSPost2010Prop35
280
     0
102
RTVSPost2010PropOp35
 70
     1
102
RTVSPost2010Prop36
280
     0
102
RTVSPost2010PropOp36
 70
     1
102
RTVSPost2010Prop37
 90
       50
102
RTVSPost2010PropOp37
 70
     1
102
RTVSPost2010Prop38
140
0.0
102
RTVSPost2010PropOp38
 70
     1
102
RTVSPost2010Prop39
140
1.0
102
RTVSPost2010PropOp39
 70
     1
102
RTVSPost2010Prop40
 90
        0
102
RTVSPost2010PropOp40
 70
     1
102
RTVSPost2010Prop41ColorIndex
 90
       18
102
RTVSPost2010Prop41ColorRGB
 90
        0
102
RTVSPost2010PropOp41
 70
     1
102
RTVSPost2010Prop42
 90
       50
102
RTVSPost2010PropOp42
 70
     1
102
RTVSPost2010Prop43
 90
        3
102
RTVSPost2010PropOp43
 70
     1
102
RTVSPost2010Prop44ColorIndex
 90
        5
102
RTVSPost2010Prop44ColorRGB
 90
      255
102
RTVSPost2010PropOp44
 70
     1
102
RTVSPost2010Prop45
280
     0
102
RTVSPost2010PropOp45
 70
     1
102
RTVSPost2010Prop46
 90
       50
102
RTVSPost2010PropOp46
 70
     1
102
RTVSPost2010Prop47
 90
       50
102
RTVSPost2010PropOp47
 70
     1
102
RTVSPost2010Prop48
 90
       50
102
RTVSPost2010PropOp48
 70
     1
102
RTVSPost2010Prop49
280
     0
102
RTVSPost2010PropOp49
 70
     1
102
RTVSPost2010Prop50
 90
       50
102
RTVSPost2010PropOp50
 70
     1
102
RTVSPost2010Prop51ColorIndex
 90
      256
102
RTVSPost2010Prop51ColorRGB
 90
-16777216
102
RTVSPost2010PropOp51
 70
     0
102
RTVSPost2010Prop52
140
1.0
102
RTVSPost2010PropOp52
 70
     0
102
RTVSPost2010Prop53
 90
        2
102
RTVSPost2010PropOp53
 70
     1
102
RTVSPost2010Prop54
  1
strokes_ogs.tif
102
RTVSPost2010PropOp54
 70
     1
102
RTVSPost2010Prop55
280
     0
102
RTVSPost2010PropOp55
 70
     1
102
RTVSPost2010Prop56
140
1.0
102
RTVSPost2010PropOp56
 70
     1
102
RTVSPost2010Prop57
140
1.0
102
RTVSPost2010PropOp57
 70
     1
102
RTVSPropertyOp0
 70
     1
102
RTVSPropertyOp1
 70
     1
102
RTVSPropertyOp2
 70
     1
102
RTVSPropertyOp3
 70
     1
102
RTVSPropertyOp4
 70
     1
102
RTVSPropertyOp5
 70
     1
102
RTVSPropertyOp6
 70
     1
102
RTVSPropertyOp7
 70
     1
102
RTVSPropertyOp8
 70
     1
102
RTVSPropertyOp9
 70
     1
102
RTVSPropertyOp10
 70
     1
102
RTVSPropertyOp11
 70
     1
102
RTVSPropertyOp12
 70
     1
102
RTVSPropertyOp13
 70
     1
102
RTVSPropertyOp14
 70
     1
102
RTVSPropertyOp15
 70
     1
102
RTVSPropertyOp16
 70
     1
102
RTVSPropertyOp17
 70
     1
102
RTVSPropertyOp18
 70
     1
102
RTVSPropertyOp19
 70
     1
102
RTVSPropertyOp20
 70
     1
102
RTVSPropertyOp21
 70
     1
102
RTVSPropertyOp22
 70
     1
102
RTVSPropertyOp23
 70
     1
102
RTVSPropertyOp24
 70
     1
102
RTVSPropertyOp25
 70
     1
102
RTVSPropertyOp26
 70
     1
102
RTVSPropertyOp27
 70
     1
102
RTVSPropertyOp28
 70
     1
102
RTVSPropertyOp29
 70
     1
102
RTVSPropertyOp30
 70
     1
102
RTVSPropertyOp31
 70
     1
102
RTVSPropertyOp32
 70
     1
102
RTVSPropertyOp33
 70
     1
102
RTVSPropertyOp34
 70
     1
102
RTVSPropertyOp35
 70
     1
102
RTVSPropertyOp36
 70
     1
102
RTVSPropertyOp37
 70
     1
102
RTVSPropertyOp38
 70
     1
102
RTVSPropertyOp39
 70
     1
102
RTVSPropertyOp40
 70
     1
102
RTVSPropertyOp41
 70
     1
102
RTVSPropertyOp42
 70
     1
102
RTVSPropertyOp43
 70
     1
102
RTVSPropertyOp44
 70
     1
102
RTVSPropertyOp45
 70
     1
102
RTVSPropertyOp46
 70
     1
102
RTVSPropertyOp47
 70
     1
102
RTVSPropertyOp48
 70
     1
102
RTVSPropertyOp49
 70
     1
102
RTVSPropertyOp50
 70
     1
102
RTVSPropertyOp51
 70
     0
102
RTVSPropertyOp52
 70
     0
102
RTVSPropertyOp53
 70
     1
102
RTVSPropertyOp54
 70
     1
102
RTVSPropertyOp55
 70
     1
102
RTVSPropertyOp56
 70
     1
102
RTVSPropertyOp57
 70
     1
102
RTVSPropertyOp58
 70
     1
102
RTVSPropertyOp59
 70
     1
102
RTVSPropertyOp60
 70
     1
102
RTVSPropertyOp61
 70
     1
102
RTVSPropertyOp62
 70
     1
  0
ENDSEC
  0
EOF
